Guitar Tabs for Udd Ja Kale Kawan

(/) Slide Up  (\) Slide Down  (h) Hammer On  (p) Pull Off  (b) Bend (r) Release (v) Vibrato (x) Muted

Tabs for Song Udd Ja Kale Kawan
e|--------------------------------------------------------------------------------9--8--9--8--6--
b|---6/9--9--9---9/11-11-11-11/13-13-13----13\11-11/-9/7---7/9--9--9--11-9--9--------------------
G|-----------------------------------------------------------------------------------------------
D|-----------------------------------------------------------------------------------------------
A|-----------------------------------------------------------------------------------------------
E|-----------------------------------------------------------------------------------------------

E|-----------------------------------------------------------------------------------------
b|---6/9--9--9---9/11-11-11-11/13-13-13----13\11-11/-9/7---7/---9--9--9--11-9--9-----------
G|-----------------------------------------------------------------------------------------
D|-----------------------------------------------------------------------------------------
A|-----------------------------------------------------------------------------------------
E|-----------------------------------------------------------------------------------------

e|---8/13-13-13-13p11-11-13p11-11\9--9--9--9--11-9-----------------9--9--9--9--
b|-----------------------------------------------------11-9--11----------------
G|-----------------------------------------------------------------------------
D|-----------------------------------------------------------------------------
A|-----------------------------------------------------------------------------
E|-----------------------------------------------------------------------------

e|---8\9--9--9---9\8--8--11-9--8-----------------------------------------
b|--------------------------------11-11--9\7---7\9--9--9--9--11-9---7\9--
G|-----------------------------------------------------------------------
D|-----------------------------------------------------------------------
A|-----------------------------------------------------------------------
E|-----------------------------------------------------------------------

E|-----------------------------------------------------------------
b|---7\-6\4---4\2---2\4---4\9--9--9--9--7--9---7\6--4--6---4\2--2-- 
G|-----------------------------------------------------------------
D|-----------------------------------------------------------------
A|-----------------------------------------------------------------
E|-----------------------------------------------------------------

E|--------------------------------------------------------------------
b|--6--4--6---4\2---2\4---4\9--9--11p9--9--7--9---7\6--4--6---4\2--2-- 
G|--------------------------------------------------------------------
D|--------------------------------------------------------------------
A|--------------------------------------------------------------------
E|--------------------------------------------------------------------

E|--------------------------------------------------------------
b|---4\9--9--9--11p9--9--9---6\4--------4---4\9--9--9--11p9--9--
g|-----------------------------------6--------------------------
D|--------------------------------------------------------------
A|--------------------------------------------------------------
E|--------------------------------------------------------------

E|--------------------------------------------------------------
b|---4\9--9--9--11p9--9--9---6\4--------4---4\9--9--9--11p9--9--
g|-----------------------------------6--------------------------
D|--------------------------------------------------------------
A|--------------------------------------------------------------
E|--------------------------------------------------------------

e|---8/13-13-13-13p11-11-13p11-11\9--9--9--9--11-9-----------------9--9--9--9--
b|-----------------------------------------------------11-9--11----------------
G|-----------------------------------------------------------------------------
D|-----------------------------------------------------------------------------
A|-----------------------------------------------------------------------------
E|-----------------------------------------------------------------------------

e|---8\9--9--9---9\8--8--11-9--8-----------------------------------------
b|--------------------------------11-11--9\7---7\9--9--9--9--11-9---7\9--
G|-----------------------------------------------------------------------
D|-----------------------------------------------------------------------
A|-----------------------------------------------------------------------
E|-----------------------------------------------------------------------

E|-----------------------------------------------------------------
b|---7\-6\4---4\2---2\4---4\9--9--9--9--7--9---7\6--4--6---4\2--2-- 
G|-----------------------------------------------------------------
D|-----------------------------------------------------------------
A|-----------------------------------------------------------------
E|-----------------------------------------------------------------

E|--------------------------------------------------------------------
b|--6--4--6---4\2---2\4---4\9--9--11p9--9--7--9---7\6--4--6---4\2--2-- 
G|--------------------------------------------------------------------
D|--------------------------------------------------------------------
A|--------------------------------------------------------------------
E|--------------------------------------------------------------------












tabs and chords, guitar tabs, music transcription, music technology, deep learning, music information retrieval, transcribe into tabs & chords, chordify, music renditions, songsterr, reverbnation, tabulature, bollywood chords, ultimate guitar, yousician, guitar lessons, acoustic guitar, electric guitar, guitar tuner, 911 tabs