Bass Tabs for U Suck Bass Tab

(/) Slide Up  (\) Slide Down  (h) Hammer On  (p) Pull Off  (b) Bend (r) Release (v) Vibrato (x) Muted

Tabs for Song : U Suck

Verse 
G|--------------------------------------------------------------------------------------------------
D|--0-----------------------------------------------------------------------------------------------
A|--------------------------3-----------------------2-----------------------3-----------------------
E|--------------------------------------------------------------------------------------------------

G|--------------------------------------------------------------------------------------------------
D|--0-----------------------------------------------------------------------------------------------
A|--------------------------3-----------------------2-----------------------3-----------------------
E|--------------------------------------------------------------------------------------------------

U Suck u suck...
G|--------------------------------------------------------------------------------------------------
D|--0-----------------------------------------------------------------------0-----------------------
A|--------------------------3-----------------------------------------3-----------------------------
E|--------------------------------------------------1-----------------------------------------------

G|--------------------------------------------------------------------------------------------------
D|--0-----------------------------------------------------------------------0-----------------------
A|--------------------------3-----------------------------------------3-----------------------------
E|--------------------------------------------------1-----------------------------------------------

Keep That Drip... (instrumental here)
G|--------------------------------------------------------------------------------------------------
D|--0--0-----0--3-----5-----------------3-----5--------------------5--3-----0--0-----0--------------
A|--------------------------3--3-----3--------------------------------------------------0-----3-----
E|--------------------------------------------------1--1-----1--------------------------------------

G|--------------------------------------------------------------------------------------------------
D|--0--0-----0--3-----5-----------------3-----5--------------------5--3-----0--0-----0--------------
A|--------------------------3--3-----3--------------------------------------------------0-----3-----
E|--------------------------------------------------1--1-----1--------------------------------------

Verse

Time stops... (swung)
G|--------------------------------------------------------------------------------------------------
D|--0-----------------------5---3-5---3-5-----3-----------------------------3--2--3-----3-----2-----
A|--------------------------------------------------3-----------------------------------------------
E|--------------------------------------------------------------------------------------------------

G|--------------------------------------------------------------------------------------------------
D|--0-----------------------5---3-5---3-5-----3-----------------------------3--2--3-----3-----2-----
A|--------------------------------------------------3-----------------------------------------------
E|--------------------------------------------------------------------------------------------------

U suck... (x2)

Keep that drip...

Guitar Solo pt 1
G|--------------------------------------------------------------------------------------------------
D|-----0--------0-----0--0--------------------------------------------------------------------------
A|-----------------------------3--------3-----3--3-----2--------2-----2--2-----------------------3--
E|-----------------------------------------------------------------------------1-----x-----1--------

G|--------------------------------------------------------------------------------------------------
D|-----0--------0-----0--0--------------------------------------------------------------------------
A|-----------------------------3--------3-----3--3-----2--------2-----2--2-----------------------3--
E|-----------------------------------------------------------------------------1-----x-----1--------

G|--------------------------------------------------------------------------------------------------
D|-----0--------0-----0--0-----------------------------------------------------7-----5-----3-----5--
A|-----------------------------3--------3-----3--3-----2--------2-----2--2--------------------------
E|--------------------------------------------------------------------------------------------------

G|--------------------------------------------------------------------------------------------------
D|-----0--------0-----0--0-----3--------3-----3--3--------------------------------------------------
A|-----------------------------------------------------2--------2-----2--2-----3-----x-----3-----3--
E|--------------------------------------------------------------------------------------------------

G|--------------------------------------------------------------------------------------------------
D|-----0--------0-----0--0-----3--------3-----3--3--------5-----------------------------------------
A|--------------------------------------------------------------------------------------------------
E|--------------------------------------------------------------------------------------------------

Guitar solo pt 2 lead-in
G|--------------------------
D|-----7-----5-----3-----5--
A|--------------------------
E|--------------------------

Guitar Solo pt 2
G|--------------------------------------------------------------------------------------------------
D|-----0--------0-----0--0-----------------------------------------------------7-----5-----3-----5--
A|-----------------------------3--------3-----3--3-----2--------2-----2--2--------------------------
E|--------------------------------------------------------------------------------------------------

G|--------------------------------------------------------------------------------------------------
D|-----0--------0-----0--0-----------------------------------------------------7-----5-----3-----5--
A|-----------------------------3--------3-----3--3-----2--------2-----2--2--------------------------
E|--------------------------------------------------------------------------------------------------

Time stops (break down)
G|--------------------------------------------------------------------------------------------------
D|--0-----------------------5-----------------------------------------------3-----------------------
A|--------------------------------------------------3-----------------------------------------------
E|--------------------------------------------------------------------------------------------------

G|--------------------------------------------------------------------------------------------------
D|--0-----------------------5-----------------------------------------------3-----------------------
A|--------------------------------------------------3-----------------------------------------------
E|--------------------------------------------------------------------------------------------------

U suck (x1.5)

Keep that drip (x2)








Paste any tab in acousterr's tab maker and we'll play it !!!
Now supports capo and sound effects for vibrato/pull-off/hammer/bends/mutes etc !!! Checkout help section
tabs and chords, guitar tabs, music transcription, music technology, deep learning, music information retrieval, transcribe into tabs & chords, chordify, music renditions, songsterr, reverbnation, tabulature, bollywood chords, ultimate guitar, yousician, guitar lessons, acoustic guitar, electric guitar, guitar tuner, 911 tabs