Guitar Tabs for Tyler's Exercises

(/) Slide Up  (\) Slide Down  (h) Hammer On  (p) Pull Off  (b) Bend (r) Release (v) Vibrato (x) Muted

Tabs for Song : Tyler's Excercises

Song lyrics here
E|--15-12-14-15-14-12-15-12-14-15-14-12-------------------------------------
B|--------------------------------------15-12-14-15-14-12-15-12-14-15-14-12-
G|--------------------------------------------------------------------------
D|--------------------------------------------------------------------------
A|--------------------------------------------------------------------------
E|--------------------------------------------------------------------------

E|--15-12----12-17-12----12-15-12----12-17-12----12-------------------------------------
B|--------15----------15----------15----------15----15-12-15-12----12-15-12-15-12----12-
G|--------------------------------------------------------------14----------------14----
D|--------------------------------------------------------------------------------------
A|--------------------------------------------------------------------------------------
E|--------------------------------------------------------------------------------------

E|--15-12----------------------------------------------------------------------
B|--------15-12-------15-12----------------------------------------------------
G|--------------14-12-------14-12-------14-12----------------------------------
D|--------------------------------14-12-------14-12-------14-12-------------14-
A|--------------------------------------------------14-12-------14-12----------
E|--------------------------------------------------------------------15-12----





Song lyrics here


Paste any tab in acousterr's tab maker and we'll play it !!!
Now supports capo and sound effects for vibrato/pull-off/hammer/bends/mutes etc !!! Checkout help section
tabs and chords, guitar tabs, music transcription, music technology, deep learning, music information retrieval, transcribe into tabs & chords, chordify, music renditions, songsterr, reverbnation, tabulature, bollywood chords, ultimate guitar, yousician, guitar lessons, acoustic guitar, electric guitar, guitar tuner, 911 tabs