Guitar Tabs for Twinkle Twinkle Tabs

Tabs for Song : Twinkle Twinkle 

twinkle twinkle little star, how i wonder what you are
E|--0--0--7--7--9--9--7-----5--5--4--4--2--2--0--
B|-----------------------------------------------
G|-----------------------------------------------
D|-----------------------------------------------
A|-----------------------------------------------
E|-----------------------------------------------


up above the world so high
E|--7--7--5--5--4--4--2--
B|-----------------------
G|-----------------------
D|-----------------------
A|-----------------------
E|-----------------------


like a diamond in the sky
E|--7--7--5--5--4--4--2--
B|-----------------------
G|-----------------------
D|-----------------------
A|-----------------------
E|-----------------------


twinkle twinkle little star, how i wonder what you are
E|--0--0--7--7--9--9--7-----5--5--4--4--2--2--0--
B|-----------------------------------------------
G|-----------------------------------------------
D|-----------------------------------------------
A|-----------------------------------------------
E|-----------------------------------------------

		

Now supports capo and sound effects for vibrato/pull-off/hammer/bends/mutes etc !!! Checkout help section
tabs and chords, guitar tabs, music transcription, music technology, deep learning, music information retrieval, transcribe into tabs & chords, chordify, music renditions, songsterr, reverbnation, tabulature, bollywood chords, ultimate guitar, yousician, guitar lessons, acoustic guitar, electric guitar, guitar tuner, 911 tabs