Guitar Tabs for Twinkle Twinkle Little Star

(/) Slide Up  (\) Slide Down  (h) Hammer On  (p) Pull Off  (b) Bend (r) Release (v) Vibrato (x) Muted

Tabs for Song : Twinkle Twinkle Little Star
e|--------------0--0--------------------------------------------------------------------------------
b|--------3--3--------3-----1--1--0--0--------------3--3--1--1--0--0--------3--3--1--1--0--0--------
g|--0--0--------------------------------2--2--0-----------------------2-----------------------2-----
d|--------------------------------------------------------------------------------------------------
a|--------------------------------------------------------------------------------------------------
e|--------------------------------------------------------------------------------------------------

E|--------------0--0-----
B|--------3--3--------3--
G|--0--0-----------------
D|-----------------------
A|-----------------------
E|-----------------------

e|--------------------------
b|--1--1--0--0--------------
g|--------------2--2--0-----
d|--------------------------
a|--------------------------
e|--------------------------


tabs and chords, guitar tabs, music transcription, music technology, deep learning, music information retrieval, transcribe into tabs & chords, chordify, music renditions, songsterr, reverbnation, tabulature, bollywood chords, ultimate guitar, yousician, guitar lessons, acoustic guitar, electric guitar, guitar tuner, 911 tabs