Guitar Tabs for Tumhe Apna Banane Ka Junoon - Tabs

Tabs for Song : Tumhe apna banane ka junun

tumhe apna banane ka junun
E|--0--0-----0--3--0--3--0-----------------------------
B|--------------------------1--0--------0--------------
G|--------------------------------2--------2--0--2-----
D|-----------------------------------------------------
A|-----------------------------------------------------
E|-----------------------------------------------------

sar pe hai sir pe hai
E|--------------------------------
B|--------0--0--------------------
G|--0--2-----------0--2--2---2----
D|--------------------------------
A|--------------------------------
E|--------------------------------

mujhe aadat bana lo ek buri
E|--0--0-----0--3--0--3-----0--------------------------
B|-----------------------------1--0-----0--------------
G|-----------------------------------2-----2--0--2-----
D|-----------------------------------------------------
A|-----------------------------------------------------
E|-----------------------------------------------------

kahana ye tumse hai
E|-----------------------------------
B|--------0--0-----------------------
G|--0--2--------------0--2--2--2-----
D|-----------------------------------
A|-----------------------------------
E|-----------------------------------

tumhe apna banane ka junun 
E|--0--0--0--3--0--3--0--------------------------
B|-----------------------1--0-----0--------------
G|-----------------------------2-----2--0--2-----
D|-----------------------------------------------
A|-----------------------------------------------
E|-----------------------------------------------

sar per h
E|-----------------------------------
B|--------0--0-----------------------
G|--0--2-----------0--2--2--2--------
D|-----------------------------------
A|-----------------------------------
E|-----------------------------------

sar per hai
E|--------------------------
B|--------0--0--------------
G|--0--2-----------0--2--2--
D|--------------------------
A|--------------------------
E|--------------------------
tabs and chords, guitar tabs, music contests, music covers, songsterr, reverbnation, renditions, tabulature, bollywood chords, ultimate guitar, yousician, guitar lessons, torrins, fender, gibson, acoustic guitar, electric guitar, youtube covers, gootar, guitar tuner, A-Z tabs, 911 tabs