Guitar Tabs for Tu bin bataye

Tabs for Song : Tu Bin Batayein

tu bin batayein

E|-----------------------------
B|---4/6-----7--6---7/9--9-----
G|-----------------------------
D|-----------------------------
A|-----------------------------
E|-----------------------------

mujhe le chal kahin

E|--6------6/9--------------------
B|-----9---------7/6------7/9-----
G|--------------------------------
D|--------------------------------
A|--------------------------------
E|--------------------------------

jaha tu muskuraye

E|-----------------------------------
B|--4------4/6-----7--6---7/9--9-----
G|-----6-----------------------------
D|-----------------------------------
A|-----------------------------------
E|-----------------------------------

meri manzil wahin

E|--6------6/9--------------------
B|-----9---------7/6------7/9-----
G|--------------------------------
D|--------------------------------
A|--------------------------------
E|--------------------------------

meethi lagi ,chakh ke dekhi abhi

E|---6/9-----8--6---6/9-----9--11-11/13-------------------
B|-----------------------------------------13-11-11/13----
G|--------------------------------------------------------
D|--------------------------------------------------------
A|--------------------------------------------------------
E|--------------------------------------------------------

mishri ki dali

E|--------------------------------
B|--9--11\13-11-------------9-----
G|-----------------11-8--10-------
D|--------------------------------
A|--------------------------------
E|--------------------------------

zindgi ho chali

E|--------------------------------
B|--9--11\13-11-------------9-----
G|-----------------11-8--10-------
D|--------------------------------
A|--------------------------------
E|--------------------------------

jahan hai teri bahein 

E|-----------------------------------
B|--4------4/6-----7--6---7/9--9-----
G|-----6-----------------------------
D|-----------------------------------
A|-----------------------------------
E|-----------------------------------

mera sahil wahi

E|--6------6/9--------------------
B|-----9---------7/6------7/9-----
G|--------------------------------
D|--------------------------------
A|--------------------------------
E|--------------------------------

tu bin batayein

E|-----------------------------
B|---4/6-----7--6---7/9--9-----
G|-----------------------------
D|-----------------------------
A|-----------------------------
E|-----------------------------

mujhe le chal kahin

E|--6------6/9--------------------
B|-----9---------7/6------7/9-----
G|--------------------------------
D|--------------------------------
A|--------------------------------
E|--------------------------------

jaha tu muskuraye

E|-----------------------------------
B|--4------4/6-----7--6---7/9--9-----
G|-----6-----------------------------
D|-----------------------------------
A|-----------------------------------
E|-----------------------------------

meri manzil wahin

E|--6------6/9--------------------
B|-----9---------7/6------7/9-----
G|--------------------------------
D|--------------------------------
A|--------------------------------
E|--------------------------------

mann ki gali

E|--------------------------
B|-----2-----1--------2-----
G|--3-----------3--3--------
D|--------------------------
A|--------------------------
E|--------------------------

tu phuharoon si aa

E|--------------------------------
B|--2---4\6---4\6-----------------
G|-----------------5--3---3\5-----
D|--------------------------------
A|--------------------------------
E|--------------------------------

bheeg jaye mere 

E|-----1--0-----0--------1-----
B|--3--------------3--3--------
G|-----------------------------
D|-----------------------------
A|-----------------------------
E|-----------------------------

khwabon ka kafila

E|--------------------------------------
B|-----2---4\6------4\6-----------------
G|-----------------------5--3---3\5-----
D|--------------------------------------
A|--------------------------------------
E|--------------------------------------

jise tu gungunaye

E|--------------------------------------
B|--------------------------------------
G|------3/5-----3-----------------------
D|--6-----------------3------3/6--6-----
A|-----------------------6--------------
E|--------------------------------------

meri dhun hai wahin

E|-----------------------------------
B|-----------------------------------
G|------3/5-----3--------------------
D|--6-----------------3------3/6-----
A|-----------------------6-----------
E|-----------------------------------
tabs and chords, guitar tabs, music contests, music covers, songsterr, reverbnation, renditions, tabulature, bollywood chords, ultimate guitar, yousician, guitar lessons, torrins, fender, gibson, acoustic guitar, electric guitar, youtube covers, gootar, guitar tuner, A-Z tabs, 911 tabs