Ttyt - Ttyt - Guitar Tabs

Track 1
    
                                                                                                                                                                                                                                                                                                                                                                                                                                                                                                                                                                                                 
E|-----0----------------------|
B|--------3-----2-----2-----3-|
G|--2--------2----------------|
D|-----0-----0-----0--------0-|
A|----------------------------|
E|----------------------------|

    
                                                                                                                                                                                                                                                                                                                                                                                                                                                                                                                                                                                                 
E|----------------------------|
B|--------3-----2-----2-----3-|
G|-----2-----2----------------|
D|-----0-----0-----0--------0-|
A|----------------------------|
E|----------------------------|

    
                                                                                                                                                                                                                                                                                                                                                                                                                                                                                                                                                                                                                                                                                                                                                                                                                                                                                                                                                                                                                                                                                                                                                                                              
E|-----0----------------------|---------2--0-----------0-|
B|--------3-----2-----2-----3-|------3-----------3-------|
G|--2--------2----------------|---2----------------------|
D|-----0-----0-----0--------0-|---0-----0-----0--------0-|
A|----------------------------|--------------------------|
E|----------------------------|--------------------------|

    
                                                                                                                                                                                                                                                                                                                                                                                                                                                                                                                                                                                                                                                                                                                                                                                                                                                                                                                                                                                                                                                                                                                                                                                              
E|-----------2--0-----------0-|---0----------------------|
B|--------3-----------3-------|------3-----2-----2-----3-|
G|-----2----------------------|2--------2----------------|
D|-----0-----0-----0--------0-|---0-----0-----0--------0-|
A|----------------------------|--------------------------|
E|----------------------------|3-----3-----3--------3----|

    
                                                                                                                                                                                                                                                                                                                                                                                                                                                                                                                                                                                                                                                                                                                                                                                                                                                                                                                                                                                                                                                                                                                                                                                              
E|-----0----------------------|---0----------------------|
B|--------3-----2-----2-----3-|------3-----2-----2-----3-|
G|-----------2----------------|---------2----------------|
D|-----0-----0-----0--------0-|---0-----0-----0--------0-|
A|----------------------------|--------------------------|
E|--3-----3-----3--------3----|2-----2-----2--------2----|

    
                                                                                                                                                                                                                                                                                                                                                                                                                                                                                                                                                                                                                                                                                                                                                                                                                                                                                                                                                                                                                                                                                                                                                                                              
E|-----------2--0-----------0-|---0----------------------|
B|--------3-----------3-------|------3-----2-----2-----3-|
G|-----2----------------------|2--------2----------------|
D|-----0-----0-----0--------0-|---0-----0-----0--------0-|
A|----------------------------|--------------------------|
E|--2-----2-----2--------2----|3-----3-----3--------3----|

    
                                                                                                                                                                                                                                                                                                                                                                                                                                                                                                                                                                                                                                                                                                                                                                                                                                                                                                                                                                                                                                                                                                                                                                                              
E|----------------------------|---0----------------------|
B|--------3-----2-----2-----3-|------3-----2-----2-----3-|
G|-----2-----2----------------|---------2----------------|
D|-----0-----0-----0--------0-|---0-----0-----0--------0-|
A|----------------------------|0-----0-----0--------0----|
E|--3-----3-----3--------3----|--------------------------|

    
                                                                                                                                                                                                                                                                                                                                                                                                                                                                                                                                                                                                 
E|-----------2--0-----------0-|
B|--------3-----------3-------|
G|-----2----------------------|
D|-----0-----0-----0--------0-|
A|--2-----2-----2--------2----|
E|----------------------------|

    
                                                                                                                                                                                                                                                                                                                                                                                                                                                                                                                                                                                                                                                                                                                                                                                                                                                                                                                                                                                                                                                                                                                                                                                              
E|--------------5----------|0----------------------|
B|-------------------------|-----------------------|
G|--2----------------------|-----------------------|
D|-----0-----0-----0-----0-|---0-----0-----0-----0-|
A|-------------------------|-----------------------|
E|--3-----3-----3-----3----|3-----3-----3-----3----|

    
                                                                                                                                                                                                                                                                                                                                                                                                                                                                                                                                                                                                                                                                                                                                                                                                                                                                                                                                                                                                                                                                                                                                                                                              
E|--------------5----------|-----------------------|
B|--3----------------------|-----------------------|
G|-------------------------|2----------------------|
D|-----0-----0-----0-----0-|---0-----0-----0-----0-|
A|-------------------------|-----------------------|
E|--2-----2-----2-----2----|2-----2-----2-----2----|

    
                                                                                                                                                                                                                                                                                                                                                                                                                                                                                                                                                                                                                                                                                                                                                                                                                                                                                                                                                                                                                                                                                                                                                                                              
E|-------------------------|5-----------------7----|
B|--------------2----------|-----------------------|
G|--2----------------------|-----------------------|
D|-----0-----0-----0-----0-|---0-----0-----0-----0-|
A|-------------------------|-----------------------|
E|--3-----3-----3-----3----|3-----3-----3-----3----|

    
                                                                                                                                                                                                                                                                                                                                                                                                                                                                                                                                                                                                 
E|--5-----------0----------|
B|-------------------------|
G|-------------------------|
D|-----0-----0-----0-----0-|
A|--0-----0-----0-----0----|
E|-------------------------|

    
                                                                                                                                                                                                                                                                                                                                                                                                                                                                                                                                                                                                                                                                                                                                                                                                                                                                                                                                                                                                                                                                                                                                                                                              
E|-----------2--0-----------0-|---10-9--------0-------|
B|--3-----3-----------3-------|---------10-7-----3----|
G|----------------------------|7--------------------2-|
D|-----0-----0-----0--------0-|-----------------------|
A|--2-----2-----2--------2----|-----------------------|
E|----------------------------|7----------------------|

    
                                                                                                                                                                                                                                                                                                                                                                                                                                                                                                                                                                                                                                                                                                                                                                                                                                                                                                                                                                                                                                                                                                                                                                                              
E|--------5-----2----------|0----------------------|
B|-------------------------|------3-----2-----3----|
G|--2----------------------|-----------------------|
D|-------------------------|-----------------------|
A|-------------------------|-----------------------|
E|--3----------------------|-----------------------|

    
                                                                                                                                                                                                                                                                                                                                                                                                                                                                                                                                                                                                                                                                                                                                                                                                                                                                                                                                                                                                                                                                                                                                                                                              
E|--0-----9---------8p7-------|5----------------------|
B|----------------------------|-----------------------|
G|----------------------------|-----------------------|
D|----------------------------|0----------------------|
A|--0-------------------------|-----------------------|
E|----------------------------|-----------------------|

    
                                                                                                                                                                                                                                                                                                                                                                                                                                                                                                                                                                                                 
E|--------5-----2----------|
B|--0----------------------|
G|-------------------------|
D|-------------------------|
A|-------------------------|
E|--3----------------------|

    
                                                                                                                                                                                                                                                                                                                                                                                                                                                                                                                                                                                                                                                                                                                                                                                                                                                                                                                                                                                                                                                                                                                                                                                              
E|--0-----------0-----2----|-----------------------|
B|--------3----------------|2-----5----------------|
G|-------------------------|-----------------------|
D|-------------------------|-----------------------|
A|-------------------------|0----------------------|
E|-------------------------|-----------------------|

    
                                                                                                                                                                                                                                                                                                                                                                                                                                                                                                                                                                                                                                                                                                                                                                                                                                                                                                                                                                                                                                                                                                                                                                                              
E|-------------------------|------------5-----2----|
B|--5-----3-----2-----3----|0-----------3----------|
G|-------------------------|2-----0-----------0----|
D|-------------------------|-----------------------|
A|--2-----------0----------|-----------------------|
E|-------------------------|3----------------------|

    
                                                                                                                                                                                                                                                                                                                                                                                                                                                                                                                                                                                                 
E|--0----------------------|
B|--2-----3-----2-----3----|
G|--------0-----------0----|
D|-------------------------|
A|-------------------------|
E|--3----------------------|

    
                                                                                                                                                                                                                                                                                                                                                                                                                                                                                                                                                                                                                                                                                                                                                                                                                                                                                                                                                                                                                                                                                                                                                                                              
E|--0-----------9---------8p7-|5----------------------|
B|----------------------------|7-----------7----------|
G|--6-----------6-------------|-----------------------|
D|--------7-----------7-------|------7-----------7----|
A|--0-------------------------|5----------------------|
E|----------------------------|-----------------------|

    
                                                                                                                                                                                                                                                                                                                                                                                                                                                                                                                                                                                                                                                                                                                                                                                                                                                                                                                                                                                                                                                                                                                                                                                              
E|--0-----------0----------|2-----------0----------|
B|--2-----------2----------|5-----3-----2-----3----|
G|--------2-----------2----|------4-----2-----2----|
D|-------------------------|-----------------------|
A|--0----------------------|2-----------0----------|
E|-------------------------|-----------------------|

    
                                                                                                                                                                                                                                                                                                                                                                                                                                                                                                                                                                                                                                                                                                                                                                                                                                                                                                                                                                                                                                                                                                                                                                                              
E|--------------5----------|0----------------------|
B|-------------------------|-----------------------|
G|--2----------------------|-----------------------|
D|-----0-----0-----0-----0-|---0-----0-----0-----0-|
A|-------------------------|0-----0-----0-----0----|
E|--3-----3-----3-----3----|-----------------------|

    
                                                                                                                                                                                                                                                                                                                                                                                                                                                                                                                                                                                                                                                                                                                                                                                                                                                                                                                                                                                                                                                                                                                                                                                              
E|--------------5----------|-----------------------|
B|--3----------------------|-----------------------|
G|-------------------------|2----------------------|
D|-----0-----0-----0-----0-|---0-----0-----0-----0-|
A|-------------------------|2-----2-----2-----2----|
E|--2-----2-----2-----2----|-----------------------|

    
                                                                                                                                                                                                                                                                                                                                                                                                                                                                                                                                                                                                                                                                                                                                                                                                                                                                                                                                                                                                                                                                                                                                                                                              
E|-------------------------|5-----------------7----|
B|--------------2----------|-----------------------|
G|--2----------------------|-----------------------|
D|-----0-----0-----0-----0-|---0-----0-----0-----0-|
A|-------------------------|0-----0-----0-----0----|
E|--3-----3-----3-----3----|-----------------------|

    
                                                                                                                                                                                                                                                                                                                                                                                                                                                                                                                                                                                                                                                                                                                                                                                                                                                                                                                                                                                                                                                                                                                                                                                              
E|--5-----------0----------|---------2--0-----------0-|
B|-------------------------|3-----3-----------3-------|
G|-------------------------|--------------------------|
D|-----0-----0-----0-----0-|---0-----0-----0--------0-|
A|-------------------------|2-----2-----2--------2----|
E|--2-----2-----2-----2----|--------------------------|

    
                                                                                                                                                                                                                                                                                                                                                                                                                                                                                                                                                                                                                                                                                                                                                                                                                                                                                                                                                                                                                                                                                                                                                                                              
E|--------------5----------|0----------------------|
B|-------------------------|------------------0----|
G|--2----------------------|------------2----------|
D|-----0-----0-----0-----0-|---0-----0-----0-----0-|
A|-------------------------|0-----0-----0-----0----|
E|--3-----3-----3-----3----|-----------------------|

    
                                                                                                                                                                                                                                                                                                                                                                                                                                                                                                                                                                                                 
E|--2-----------5----------|
B|--3-----------5----------|
G|--2----------------------|
D|-----0-----0-----0-----0-|
A|-------------------------|
E|--2-----2-----2-----2----|

    
                                                                                                                                                                                                                                                                                                                                                                                                                                                                                                                                                                                                                                                                                                                                                                                                                                                                                                                                                                                                                                                                                                                                                                                              
E|--------------2--3--2--0-|-----------------------|
B|--3----------------------|3-----------2----------|
G|--2----------------------|2----------------------|
D|-----0-----0-------------|---0-----0-----0-----0-|
A|--2-----2----------------|-----------------------|
E|-------------------------|3-----3-----3-----3----|

    
                                                                                                                                                                                                                                                                                                                                                                                                                                                                                                                                                                                                                                                                                                                                                                                                                                                                                                                                                                                                                                                                                                                                                                                              
E|--5-----------0-----7----|5-----------0----------|
B|--------------------0----|------3-----2----------|
G|--2----------------------|2-----------------2----|
D|-----0-----0-----0-----0-|---0-----0-----0-----0-|
A|--0-----0-----0-----0----|-----------------------|
E|-------------------------|2-----2-----2-----2----|

    
                                                                                                                                                                                                                                                                                                                                                                                                                                                                                                                                                                                                                                                                                                                                                                                                                                                                                                                                                                                                                                                                                                                                                                                              
E|-----10-9--------0-------|------------5-----0----|
B|-----------10-7-----3----|------3-----3----------|
G|--7--------------------2-|2----------------------|
D|-------------------------|---0-----0-----0-----0-|
A|-------------------------|-----------------------|
E|--7----------------------|3-----3-----3-----3----|
tabs and chords, guitar tabs, music transcription, music technology, deep learning, music information retrieval, transcribe into tabs & chords, chordify, music renditions, songsterr, reverbnation, tabulature, bollywood chords, ultimate guitar, yousician, guitar lessons, acoustic guitar, electric guitar, guitar tuner, 911 tabs