Guitar Tabs for Truce Tab

(/) Slide Up  (\) Slide Down  (h) Hammer On  (p) Pull Off  (b) Bend (r) Release (v) Vibrato (x) Muted

Tabs for Song : 
BPM : 120
E|--------------------------------------------------
B|--------------------------------------------------
G|--------0-----------0-----------0-----------0-----
D|-----0-----0-----0-----0-----0-----0-----0-----0--
A|--------------------------------------------------
E|--3-----------3-----------3-----------3-----------


Song lyrics here 
E|--------------------------------------------------------------------------------------------------
B|--------------------------------------------------------------------------------------------------
G|--------0-----------2-----------0-----------0-----------------------0-----------0-----------0-----
D|-----0-----0-----1-----1-----2-----2-----0--------------2--------2-----2-----0-----0-----0-----0--
A|--------------2-----------3--------------------------2-----2--3-----------------------------------
E|--3-----------------------------------3--------2--0-----------------------3-----------3-----------

Song lyrics here 
E|--------------------------------------------------------------------------------------------------
B|--------------------------------------------------------------------------------------------------
G|--------0-----------2-----------0-----------0-----------------------0-----------0-----------0-----
D|-----0-----0-----1-----1-----2-----2-----0--------------2--------2-----2-----0-----0-----0-----0--
A|--------------2-----------3--------------------------2-----2--3-----------------------------------
E|--3-----------------------------------3--------2--0-----------------------3-----------3-----------

E|--------------------------------------------------------------------------3-----2-----0-----2-----0-----3-----
B|--------3-----------------------------------------------3-----------------3-----3-----0-----3-----1-----4-----
G|-----2-----2--------0-----------0-----------0--------2-----2--------0-----4-----2-----0-----2-----0-----5-----
D|--0--------------2-----2-----0-----0-----0-----0--0--------------2-----2--5-----4-----2-----0-----2-----5-----
A|--------------3-----------------------------------------------3-----------5-----5-----2-----------3-----3-----
E|--------------------------3-----------3-----------------------------------3-----2-----0-----------------------

E|--------------------------
B|--------------------------
G|--------0-----------0-----
D|-----0-----0-----0-----0--
A|--------------------------
E|--3-----------3-----------

E|--------------------------------------------------------------------------------------------------
B|--------------------------------------------------------------------------------------------------
G|--------0-----------2-----------0-----------0-----------------------0-----------0-----------0-----
D|-----0-----0-----1-----1-----2-----2-----0--------------2--------2-----2-----0-----0-----0-----0--
A|--------------2-----------3--------------------------2-----2--3-----------------------------------
E|--3-----------------------------------3--------2--0-----------------------3-----------3-----------

E|--------------------------------------------------------------------------------------------------
B|--------------------------------------------------------------------------------------------------
G|--------0-----------2-----------0-----------0-----------------------0-----------0-----------0-----
D|-----0-----0-----1-----1-----2-----2-----0--------------2--------2-----2-----0-----0-----0-----0--
A|--------------2-----------3--------------------------2-----2--3-----------------------------------
E|--3-----------------------------------3--------2--0-----------------------3-----------3-----------

E|--------------------------------------------------------------------------3-----2-----0-----2-----0-----3-----
B|--------3-----------------------------------------------3-----------------3-----3-----0-----3-----1-----4-----
G|-----2-----2--------0-----------0-----------0--------2-----2--------0-----4-----2-----0-----2-----0-----5-----
D|--0--------------2-----2-----0-----0-----0-----0--0--------------2-----2--5-----4-----2-----0-----2-----5-----
A|--------------3-----------------------------------------------3-----------5-----5-----2-----------3-----3-----
E|--------------------------3-----------3-----------------------------------3-----2-----0-----------------------

BPM: 250
E|--3--5--7-----------10----5--3-----------------7--------------------------------------------------
B|--------------------------------------5-----3-----------------------------------------------------
G|--------------------------------------------------------------------------------------------------
D|--------------------------------------------------------------------------------------------------
A|--------------------------3-----------------------------------------------------------------------
E|--0-----------0--------------------------------3--------------------------------------------------

E|--3--5--7-----------10----5--3--------------------------------------------
B|--------------------------------------5-----3-----0-----------------------
G|--------------------------------------------------------------------------
D|--------------------------------------------------------------------------
A|--------------------------3-----------------------------------------------
E|--0-----------0-----------------------------------3-----------------------

Use manual mode to free up cursor. Paste any tab in acousterr tab maker and we'll play it !!!
tabs and chords, guitar tabs, music transcription, music technology, deep learning, music information retrieval, transcribe into tabs & chords, chordify, music renditions, songsterr, reverbnation, tabulature, bollywood chords, ultimate guitar, yousician, guitar lessons, acoustic guitar, electric guitar, guitar tuner, 911 tabs