Tropico - Composers Of Msb - Guitar Tabs

rhythm
    
                                                                                                                                                                                                                                                                                                                                                                                                                                                                                                                                                                                                                                                                                                                                                                                                                                                                                                                                                                                                                                                                                                                                                                                              
E|--0--------0-----0-------|3--------3-----3-------|
B|--1--------1--1--1-------|0--------0-----0-------|
G|--2--------2--2--2-------|0--------0-----0-------|
D|--2--------2--2--2-------|0----------------------|
A|--0--------0--x--0-------|2----------------------|
E|-------------------------|3----------------------|

    
                                                                                                                                                                                                                                                                                                                                                                                                                                                                                                                                                                                                                                                                                                                                                                                                                                                                                                                                                                                                                                                                                                                                                                                              
E|--1--------1-------------|0----------------------|
B|--1--------1-----1-------|0----------------------|
G|--2--------2-----2-------|1--------1-----1-------|
D|--3--------------3-------|2--------2-----0-------|
A|--x----------------------|2--------2-----2-------|
E|--1----------------------|0----------------------|

    
                                                                                                                                                                                                                                                                                                                                                                                                                                                                                                                                                                                                                                                                                                                                                                                                                                                                                                                                                                                                                                                                                                                                                                                              
E|--0--------0-----0-------|3--------3-----3-------|
B|--1--------1-----1-------|0--------0-----0-------|
G|--2--------2-----2-------|0--------0-----0-------|
D|--2--------2-----2-------|0----------------------|
A|--0--------0-----0-------|2----------------------|
E|-------------------------|3----------------------|

    
                                                                                                                                                                                                                                                                                                                                                                                                                                                                                                                                                                                                                                                                                                                                                                                                                                                                                                                                                                                                                                                                                                                                                                                              
E|--1--------1-------------|0----------------------|
B|--1--------1-----1-------|0----------------------|
G|--2--------2-----2-------|1--------1-----1-------|
D|--3--------------3-------|2--------2-----0-------|
A|--x----------------------|2--------2-----2-------|
E|--1----------------------|0----------------------|

    
                                                                                                                                                                                                                                                                                                                                                                                                                                                                                                                                                                                                                                                                                                                                                                                                                                                                                                                                                                                                                                                                                                                                                                                              
E|--0--------0-----0-------|3--------3-----3-------|
B|--1--------1--1--1-------|0--------0-----0-------|
G|--2--------2--2--2-------|0--------0-----0-------|
D|--2--------2--2--2-------|0----------------------|
A|--0--------0--x--0-------|2----------------------|
E|-------------------------|3----------------------|

    
                                                                                                                                                                                                                                                                                                                                                                                                                                                                                                                                                                                                                                                                                                                                                                                                                                                                                                                                                                                                                                                                                                                                                                                              
E|--1--------1-------------|0----------------------|
B|--1--------1-----1-------|0----------------------|
G|--2--------2-----2-------|1--------1-----1-------|
D|--3--------------3-------|2--------2-----0-------|
A|--x----------------------|2--------2-----2-------|
E|--1----------------------|0----------------------|

    
                                                                                                                                                                                                                                                                                                                                                                                                                                                                                                                                                                                                                                                                                                                                                                                                                                                                                                                                                                                                                                                                                                                                                                                              
E|--0--------0-----0-------|3--------3-----3-------|
B|--1--------1-----1-------|0--------0-----0-------|
G|--2--------2-----2-------|0--------0-----0-------|
D|--2--------2-----2-------|0----------------------|
A|--0--------0-----0-------|2----------------------|
E|-------------------------|3----------------------|

    
                                                                                                                                                                                                                                                                                                                                                                                                                                                                                                                                                                                                                                                                                                                                                                                                                                                                                                                                                                                                                                                                                                                                                                                              
E|--1--------1-------------|0----------------------|
B|--1--------1-----1-------|0----------------------|
G|--2--------2-----2-------|1--------1-----1-------|
D|--3--------------3-------|2--------2-----0-------|
A|--x----------------------|2--------2-----2-------|
E|--1----------------------|0----------------------|

    
                                                                                                                                                                                                                                                                                                                                                                                                                                                                                                                                                                                                                                                                                                                                                                                                                                                                                                                                                                                                                                                                                                                                                                                              
E|--0--------0-----0-------|3--------3-----3-------|
B|--1--------1--1--1-------|0--------0-----0-------|
G|--2--------2--2--2-------|0--------0-----0-------|
D|--2--------2--2--2-------|0----------------------|
A|--0--------0--x--0-------|2----------------------|
E|-------------------------|3----------------------|

    
                                                                                                                                                                                                                                                                                                                                                                                                                                                                                                                                                                                                                                                                                                                                                                                                                                                                                                                                                                                                                                                                                                                                                                                              
E|--1--------1-------------|0----------------------|
B|--1--------1-----1-------|0----------------------|
G|--2--------2-----2-------|1--------1-----1-------|
D|--3--------------3-------|2--------2-----0-------|
A|--x----------------------|2--------2-----2-------|
E|--1----------------------|0----------------------|

    
                                                                                                                                                                                                                                                                                                                                                                                                                                                                                                                                                                                                                                                                                                                                                                                                                                                                                                                                                                                                                                                                                                                                                                                              
E|--0--------0-----0-------|3--------3-----3-------|
B|--1--------1-----1-------|0--------0-----0-------|
G|--2--------2-----2-------|0--------0-----0-------|
D|--2--------2-----2-------|0----------------------|
A|--0--------0-----0-------|2----------------------|
E|-------------------------|3----------------------|

    
                                                                                                                                                                                                                                                                                                                                                                                                                                                                                                                                                                                                                                                                                                                                                                                                                                                                                                                                                                                                                                                                                                                                                                                              
E|--1--------1-------------|0----------------------|
B|--1--------1-----1-------|0----------------------|
G|--2--------2-----2-------|1--------1-----1-------|
D|--3--------------3-------|2--------2-----0-------|
A|--x----------------------|2--------2-----2-------|
E|--1----------------------|0----------------------|

    
                                                                                                                                                                                                                                                                                                                                                                                                                                                                                                                                                                                                 
E|--0----------------------|
B|--1----------------------|
G|--2----------------------|
D|--2----------------------|
A|--0----------------------|
E|-------------------------|
tabs and chords, guitar tabs, music transcription, music technology, deep learning, music information retrieval, transcribe into tabs & chords, chordify, music renditions, songsterr, reverbnation, tabulature, bollywood chords, ultimate guitar, yousician, guitar lessons, acoustic guitar, electric guitar, guitar tuner, 911 tabs