Bass Tabs for Train In Vain


Tabs for Song : train in vain
BPM : 200


G|--------------------------------------------------
D|--------------------------------------------------
A|--3--2--------3--2--------3--2--------3--2--------
E|--------3-----------3-----------3-----------3-----


G|--------------------------------------------------------------------------------------
D|--------------------------------------------------------------------------------------
A|--3--3--------------3--2--------3--2--------3--3-----------------------3--3-----5--5--
E|-----------5--5-----------3-----------3--------------3--3-----5--5--------------------


G|--------------------------------------------------------------------------
D|--------------------------------------------------------------------------
A|--------0--------3--2--------3--2--------------0-----3--2--------3--2-----
E|--3--0-----------------3-----------3-----3--0--------------3-----------3--

tabs and chords, guitar tabs, music transcription, music technology, deep learning, music information retrieval, transcribe into tabs & chords, chordify, music renditions, songsterr, reverbnation, tabulature, bollywood chords, ultimate guitar, yousician, guitar lessons, acoustic guitar, electric guitar, guitar tuner, 911 tabs