Guitar Tabs for Toy Bass Guitar Solo - Davie504

(/) Slide Up  (\) Slide Down  (h) Hammer On  (p) Pull Off  (b) Bend (r) Release (v) Vibrato (x) Muted

Tabs & Chords
BPM : 250
Check Track 2 for Chord Positions 

                                                                                     A#       
E|-----------------------------------------------------------------------------------------------
B|-----------------------------6-------------------------------------------------------------6---
G|--7--7--7-----7--7--5-h7--------7--7--7-----7--7--5-h7--5-h7------7--7--7-----7--7-5-h7-------7
D|-----------------------------------------------------------------------------------------------
A|-----------------------------------------------------------------------------------------------
E|-----------------------------------------------------------------------------------------------

                                        Dm          D                                            
E|-----------------------------------------------------------------------------------------------------------
B|--6b-9---9-8--------------------------------------6--------------------------------------------------------
G|-----------------7--7--5--7--7--7-----7--7--5-h7--------7--7--7-----7--7--5-h7--5-h7--------7--7--7-----7--
D|-----------------------------------------------------------------------------------------------------------
A|-----------------------------------------------------------------------------------------------------------
E|-----------------------------------------------------------------------------------------------------------

    Dm             Gm                   D                             F                       
E|-----------------------------------------------------10----------10----------------8--------
B|--------------------8--8--9--8--------------------------------------------------------------
G|--7--------10-7--10-------------10-7--7-----7--7--7-----7--7--7-----------10-10-10----10-10-
D|-----8--10-------------------------------10-------------------------7--10-------------------
A|--------------------------------------------------------------------------------------------
E|--------------------------------------------------------------------------------------------

             G                 Gm             D                             F              Dm 
E|-----8--------------------8-----------------8-----------------------10-8--------------------
B|--------------7--8--8--8-----8--8--7--8--10----10-8--7--------------------10-8--8-----------
G|--10----7--10-------------------------------------------7--7--7--------------------10-7--7--
D|--------------------------------------------------------------------------------------------
A|--------------------------------------------------------------------------------------------
E|--------------------------------------------------------------------------------------------

       D              
E|-----10----------10-
B|--------------------
G|--7-----7--7--7-----
D|--------------------
A|--------------------
E|--------------------

tabs and chords, guitar tabs, music transcription, music technology, deep learning, music information retrieval, transcribe into tabs & chords, chordify, music renditions, songsterr, reverbnation, tabulature, bollywood chords, ultimate guitar, yousician, guitar lessons, acoustic guitar, electric guitar, guitar tuner, 911 tabs