Toss A Coin To Your Witcher - Jaskier - Guitar Tabs

Nylon Guitar
    
                                                                                                                                                                                                                                                                                                                                                                                                                                                                                                                                                                                                                                                                                                                                                                                                                                                                                                                                                                                                                                                                                                                                                                                              
E|--------------0----------|---0-----0-------------|
B|-----------1--------3--1-|3-----------3--1--0--1-|
G|--2-----2----------------|-----------------------|
D|-----2-----------2-------|------------0----------|
A|--0----------------------|3-----3--------------0-|
E|--------------0----------|-----------------------|

    
                                                                                                                                                                                                                                                                                                                                                                                                                                                                                                                                                                                                                                                                                                                                                                                                                                                                                                                                                                                                                                                                                                                                                                                              
E|-----------0-------------|-----------------------|
B|--------------3--1--0--1-|---------------1-------|
G|-----2-------------------|---2-----0--2----------|
D|--2-----2-----0----------|2-----2----------------|
A|-------------------------|------------------0--0-|
E|-------------------------|-----------------------|

    
                                                                                                                                                                                                                                                                                                                                                                                                                                                                                                                                                                                                                                                                                                                                                                                                                                                                                                                                                                                                                                                                                                                                                                                              
E|--------------0----------|---0-----0--3--0-----0-|
B|-----------1--------3--1-|3-----------------3----|
G|--2-----2----------------|-----------------------|
D|-----2-----------2-------|------------0----------|
A|--0----------------------|3-----3----------------|
E|--------------0----------|-----------------------|

    
                                                                                                                                                                                                                                                                                                                                                                                                                                                                                                                                                                                                                                                                                                                                                                                                                                                                                                                                                                                                                                                                                                                                                                                              
E|--------0--------0-------|-----------------------|
B|-----0--------0--------0-|9--------9--------9----|
G|-------------------------|---9--------9--------9-|
D|-----------2--------2----|------9--------9-------|
A|-------------------------|7----------------------|
E|--0----------------------|-----------------------|

    
                                                                                                                                                                                                                                                                                                                                                                                                                                                                                                                                                                                                                                                                                                                                                                                                                                                                                                                                                                                                                                                                                                                                                                                              
E|--5-----------0----------|---0-----0-------------|
B|-----------1--------3--1-|3-----------3--1--0--1-|
G|-----2--2----------------|-----------------------|
D|-----------------2-------|------------0----------|
A|--0----------------------|3-----3--------------0-|
E|--------------0----------|-----------------------|

    
                                                                                                                                                                                                                                                                                                                                                                                                                                                                                                                                                                                                                                                                                                                                                                                                                                                                                                                                                                                                                                                                                                                                                                                              
E|-----------0-------------|-----------------------|
B|--------------3--1--0--1-|---------------1-------|
G|-----2-------------------|---2-----0--2----------|
D|--2-----2-----0----------|2-----2----------------|
A|-------------------------|------------------0--0-|
E|-------------------------|-----------------------|

    
                                                                                                                                                                                                                                                                                                                                                                                                                                                                                                                                                                                                                                                                                                                                                                                                                                                                                                                                                                                                                                                                                                                                                                                              
E|--------------0----------|---0-----0--3--0-----0-|
B|-----------1--------3--1-|3-----------------3----|
G|--2-----2----------------|-----------------------|
D|-----2-----------2-------|------------0----------|
A|--0----------------------|3-----3----------------|
E|--------------0----------|-----------------------|

    
                                                                                                                                                                                                                                                                                                                                                                                                                                                                                                                                                                                                                                                                                                                                                                                                                                                                                                                                                                                                                                                                                                                                                                                              
E|--------0--------0-------|-----------------------|
B|-----0--------0--------0-|9--------9--------9----|
G|-------------------------|---9--------9--------9-|
D|-----------2--------2----|------9--------9-------|
A|-------------------------|7----------------------|
E|--0----------------------|-----------------------|

    
                                                                                                                                                                                                                                                                                                                                                                                                                                                                                                                                                                                                                                                                                                                                                                                                                                                                                                                                                                                                                                                                                                                                                                                              
E|--5-------------------------------|--------------------------|
B|------------3p5--3----------------|1-----1--0----------------|
G|--------------------5--4----------|2--------------2--0-------|
D|----------------------------------|2-------------------------|
A|--0-------------------------------|0-------------------------|
E|----------------------------------|--------------------------|

    
                                                                                                                                                                                                                                                                                                                                                                                                                                                                                                                                                                                                                                                                                                                                                                                                                                                                                                                                                                                                                                                                                                                                                                                              
E|----------------------------|------------------0----|
B|--3-----1--3-----1----------|1-----------3--3-----1-|
G|--2-----------------4-------|2--------2-------------|
D|--0-------------------------|3----------------------|
A|----------------------------|-----------------------|
E|----------------------------|-----------------------|

    
                                                                                                                                                                                                                                                                                                                                                                                                                                                                                                                                                                                                                                                                                                                                                                                                                                                                                                                                                                                                                                                                                                                                                                                              
E|-------------------------|-----------------------|
B|--------------3--1--3--5-|-----------------------|
G|-----2-----2-------------|-----------------------|
D|-------------------------|0----------------------|
A|-------------------------|-----------------------|
E|--3----------------------|-----------------------|

    
                                                                                                                                                                                                                                                                                                                                                                                                                                                                                                                                                                                                                                                                                                                                                                                                                                                                                                                                                                                                                                                                                                                                                                                              
E|--0-----0----------------|---0-------------------|
B|--0-----0----------------|---------3--1--0-------|
G|--0-----1----------------|2-----2-----------2--0-|
D|--2-----2----------------|-----------------------|
A|-------------------------|0----------------------|
E|-------------------------|-----------------------|

    
                                                                                                                                                                                                                                                                                                                                                                                                                                                                                                                                                                                                                                                                                                                                                                                                                                                                                                                                                                                                                                                                                                                                                                                              
E|-----0-------------------|---0--------------0----|
B|-----------3--1--3--1--0-|---------3--3--3-----1-|
G|--2----------------------|2----------------------|
D|--4-----4----------------|3-----3----------------|
A|-------------------------|-----------------------|
E|-------------------------|-----------------------|

    
                                                                                                                                                                                                                                                                                                                                                                                                                                                                                                                                                                                                                                                                                                                                                                                                                                                                                                                                                                                                                                                                                                                                                                                              
E|-------------------------|-----------------------|
B|--------------3--1--3--5-|------5--------5-------|
G|-----2-----2-------------|-----------------------|
D|-------------------------|---4--------4--------4-|
A|-------------------------|5--------5--------5----|
E|--3-----3----------------|-----------------------|

    
                                                                                                                                                                                                                                                                                                                                                                                                                                                                                                                                                                                                                                                                                                                                                                                                                                                                                                                                                                                                                                                                                                                                                                                              
E|-------------------------|5-----5-----8---7p8--7--5----|
B|-----------9--------9----|---5-----5-----------------8-|
G|--9-----9-----9--------9-|-----------------------------|
D|-----9-----------9-------|-----------------------------|
A|--7----------------------|0----------------------------|
E|-------------------------|-----------------------------|

    
                                                                                                                                                                                                                                                                                                                                                                                                                                                                                                                                                                                                                                                                                                                                                                                                                                                                                                                                                                                                                                                                                                                                                                                              
E|--5-----5-----8--10-8--7-|------------10-10-12-8-|
B|-------------------------|10----10---------------|
G|-----7-----7-------------|---10----10------------|
D|--0----------------------|-----------------------|
A|-------------------------|8----------------------|
E|-------------------------|-----------------------|

    
                                                                                                                                                                                                                                                                                                                                                                                                                                                                                                                                                                                                                                                                                                                                                                                                                                                                                                                                                                                                                                                                                                                                                                                              
E|-----5-----5--15-12-10-12|5-----5-----8---7p8--7--5----|
B|--------5----------------|---5-----5-----------------8-|
G|-------------------------|-----------------------------|
D|--5----------------------|-----------------------------|
A|-------------------------|0----------------------------|
E|-------------------------|-----------------------------|

    
                                                                                                                                                                                                                                                                                                                                                                                                                                                                                                                                                                                                                                                                                                                                                                                                                                                                                                                                                                                                                                                                                                                                                                                              
E|--5-----5-----8--10-8--7-|------------10-10-12-8-|
B|-------------------------|10----10---------------|
G|-----7-----7-------------|---10----10------------|
D|--0----------------------|-----------------------|
A|-------------------------|8----------------------|
E|-------------------------|-----------------------|

    
                                                                                                                                                                                                                                                                                                                                                                                                                                                                                                                                                                                                                                                                                                                                                                                                                                                                                                                                                                                                                                                                                                                                                                                              
E|-----5-----5--10-8--10-12|-----------------------|
B|-------------------------|------------------9--9-|
G|--------7----------------|9--9--9--9--9--9--9--9-|
D|--5----------------------|9--9--9--9--9--9--9--9-|
A|-------------------------|7--7--7--7--7--7--7--7-|
E|-------------------------|-----------------------|

    
                                                                                                                                                                                                                                                                                                                                                                                                                                                                                                                                                                                                                                                                                                                                                                                                                                                                                                                                                                                                                                                                                                                                                                                              
E|--5-----------0----------|---0-----0-------------|
B|-----------1--------3--1-|3-----------3--1--0--1-|
G|-----2--2----------------|-----------------------|
D|-----------------2-------|------------0----------|
A|--0----------------------|3-----3--------------0-|
E|--------------0----------|-----------------------|

    
                                                                                                                                                                                                                                                                                                                                                                                                                                                                                                                                                                                                                                                                                                                                                                                                                                                                                                                                                                                                                                                                                                                                                                                              
E|-----------0-------------|-----------------------|
B|--------------3--1--0--1-|---------------1-------|
G|-----2-------------------|---2-----0--2----------|
D|--2-----2-----0----------|2-----2----------------|
A|-----------------------0-|------------------0--0-|
E|-------------------------|-----------------------|

    
                                                                                                                                                                                                                                                                                                                                                                                                                                                                                                                                                                                                                                                                                                                                                                                                                                                                                                                                                                                                                                                                                                                                                                                              
E|--------------0----------|---0-----0--3--0-----0-|
B|-----------1--------3--1-|3-----------------3----|
G|--2-----2----------------|-----------------------|
D|-----2-----------2-------|------------0----------|
A|--0----------------------|3-----3----------------|
E|--------------0----------|-----------------------|

    
                                                                                                                                                                                                                                                                                                                                                                                                                                                                                                                                                                                                                                                                                                                                                                                                                                                                                                                                                                                                                                                                                                                                                                                              
E|--------0--------0-------|-----------------------|
B|-----0--------0--------0-|9--------9--------9----|
G|-------------------------|---9--------9--------9-|
D|-----------2--------2----|------9--------9-------|
A|-------------------------|7----------------------|
E|--0----------------------|-----------------------|

    
                                                                                                                                                                                                                                                                                                                                                                                                                                                                                                                                                                                                                                                                                                                                                                                                                                                                                                                                                                                                                                                                                                                                                                                              
E|--5-------------------------------|-----------------------------|
B|------------3p5--3----------------|------------1---0p1--0-------|
G|--------------------5--4----------|2-----2-----------------2--0-|
D|----------------------------------|---2-----2-------------------|
A|--0-------------------------------|0----------------------------|
E|----------------------------------|-----------------------------|

    
                                                                                                                                                                                                                                                                                                                                                                                                                                                                                                                                                                                                                                                                                                                                                                                                                                                                                                                                                                                                                                                                                                                                                                                              
E|-------------------------------|------------------0----|
B|--------------1--3---1p3--1--0-|------------3--3-----1-|
G|--2-----2----------------------|2-----2----------------|
D|--0--0-----0-------------------|---3-----3-------------|
A|-------------------------------|-----------------------|
E|-------------------------------|1----------------------|

    
                                                                                                                                                                                                                                                                                                                                                                                                                                                                                                                                                                                                                                                                                                                                                                                                                                                                                                                                                                                                                                                                                                                                                                                              
E|-------------------------|-----------------------|
B|--------------3--1--3--5-|------5--------5-------|
G|-----2-----2-------------|-----------------------|
D|-------------------------|---4--------4--------4-|
A|-------------------------|5--------5--------5----|
E|--3-----3----------------|-----------------------|

    
                                                                                                                                                                                                                                                                                                                                                                                                                                                                                                                                                                                                                                                                                                                                                                                                                                                                                                                                                                                                                                                                                                                                                                                              
E|-------------------------|5-----5-----8---7p8--7--5----|
B|-----------9--------9----|---5-----5-----------------8-|
G|--9-----9-----9--------9-|-----------------------------|
D|-----9-----------9-------|-----------------------------|
A|--7----------------------|0----------------------------|
E|-------------------------|-----------------------------|

    
                                                                                                                                                                                                                                                                                                                                                                                                                                                                                                                                                                                                                                                                                                                                                                                                                                                                                                                                                                                                                                                                                                                                                                                              
E|--5-----5-----8--10-8--7-|------------10-10-12-8-|
B|-------------------------|10----10---------------|
G|-----7-----7-------------|---10----10------------|
D|--0----------------------|-----------------------|
A|-------------------------|8----------------------|
E|-------------------------|-----------------------|

    
                                                                                                                                                                                                                                                                                                                                                                                                                                                                                                                                                                                                                                                                                                                                                                                                                                                                                                                                                                                                                                                                                                                                                                                              
E|-----5-----5--15-12-10-12|5-----5-----8---7p8--7--5----|
B|--------5----------------|---5-----5-----------------8-|
G|-------------------------|-----------------------------|
D|--5----------------------|-----------------------------|
A|-------------------------|0----------------------------|
E|-------------------------|-----------------------------|

    
                                                                                                                                                                                                                                                                                                                                                                                                                                                                                                                                                                                                                                                                                                                                                                                                                                                                                                                                                                                                                                                                                                                                                                                              
E|--5-----5-----8--10-8--7-|------------10-10-12-8-|
B|-------------------------|10----10---------------|
G|-----7-----7-------------|---10----10------------|
D|--0----------------------|-----------------------|
A|-------------------------|8----------------------|
E|-------------------------|-----------------------|

About Toss a Coin to Your Witcher : Song was composed by Sonya Belousova and Giona Ostinelli with lyrics by Jenny Klein . It became a viral hit shortly after the series' release in December 2019 . The song was remixed by fans in YouTube videos and received new covers within days . Song does not appear in novels the series is based on . The idea for the song was initiated by screenwriter Jenny Klein . It had been established that the episode would be the introduction of the bard Jaskier to Geralt of Rivia . Composers Sonya Belousova and Giona Ostinelli to score the lyrics . They had planned to try a range of styles to see what best suited the song . Composers planned to score as one of the first musical elements they did for It was released in 2020. It was released as part of album The Witcher (Music from the Netflix Original Series). The track was release in 2020. Toss a Coin to Your Witcher has a significant contribution from artist(s) Sonya Belousova,Giona Ostinelli,Jenny Klein,Joey Batey. Its associated with movies - The Witcher.

About Sonya Belousova - Sonya Belousova is a Russian-born American film composer, pianist and recording artist . At the age of 13 she was awarded with the Russian Ministry of Culture Award for her outstanding achievements in music composition . The Witcher Original Soundtrack Album, featuring songs and score composed and produced by Belousova and her scoring partner Giona Ostinelli . Netflix's hit fantasy series The Witcher starring Henry Cavil, has achieved commercial success Belousova has gained wide public recognition for her award-winning project Player Piano . To date Player Piano has totaled over 24 million views and received an array of awards and honors . Sonya Belousova's music is influenced by genre(s) - film score , contemporary , classical , electronic , pop.

About Giona Ostinelli - Giona Ostinelli is a Swiss–Italian composer who resides and works The Witcher Original Soundtrack Album, featuring songs and score composed and produced by Ostinelli and his scoring partner Sonya Belousova . Ostinelli is best known for his work on Netflix's hit fantasy series The Witcher Ostinelli's score for Darling has been described as "one of the most interesting and innovative soundscapes" His soundtrack for POD has been shortlisted for the Academy Awards for Best Original Score . Giona Ostinelli's music is influenced by genre(s) - film score electronic classical rock pop.

tabs and chords, guitar tabs, music transcription, music technology, deep learning, music information retrieval, transcribe into tabs & chords, chordify, music renditions, songsterr, reverbnation, tabulature, bollywood chords, ultimate guitar, yousician, guitar lessons, acoustic guitar, electric guitar, guitar tuner, 911 tabs