Toss A Coin To Myself - Guitar Tabs

E|-----------------------------------------------------------
B|-----------------------------------6-----------------------
G|---6/5------------6/5--------8--6-----6--------8--6--8--10-
D|---------8p6--8--------8--8--------------8--8--------------
A|-----------------------------------------------------------
E|-----------------------------------------------------------

E|--------------------------------
B|--------------------------------
G|---6/5------------6h8---6/5-----
D|---------8p6--8--------------8--
A|--------------------------------
E|--------------------------------

E|--------------------------------------
B|-----------6--------------------------
G|-----8--6-----6--------8--6--10-6-----
D|--8--------------8--8--------------8--
A|--------------------------------------
E|--------------------------------------

E|--------------------------------
B|--------------------------------
G|---6/5------------6h8---6/5-----
D|---------8p6--8--------------8--
A|--------------------------------
E|--------------------------------

E|-----------------------------------
B|-----------6-----------9-----------
G|-----8--6-----6-----------10-8--10-
D|--8--------------8--8--------------
A|-----------------------------------
E|-----------------------------------

E|--------------------------------
B|--------------------------------
G|---6/5------------6h8---6/5-----
D|---------8p6--8--------------8--
A|--------------------------------
E|--------------------------------

E|--------------------------------
B|-----------6--------------------
G|-----8--6-----6-----8--6--8--10-
D|--8--------------8--------------
A|--------------------------------
E|--------------------------------

E|-----------------------
B|--------------------6--
G|-----6--10-8--6--8-----
D|--8--------------------
A|-----------------------
E|-----------------------

E|-----------------------------------------------
B|--6-----------------6--------------------------
G|-----8--6--5--6--------8--6--5--6-----------6--
D|-----------------8-----------------8---6h8-----
A|-----------------------------------------------
E|-----------------------------------------------

E|-----------------------
B|--------------------6--
G|-----6--10-------------
D|--8--------8--6--8-----
A|-----------------------
E|-----------------------

E|--------------------------
B|-----9--------------10-11-
G|--10----10-8--10-10-------
D|--------------------------
A|--------------------------
E|--------------------------

E|--------------------------------
B|--------------------------------
G|---6/5------------6h8---6/5-----
D|---------8p6--8--------------8--
A|--------------------------------
E|--------------------------------









About Travels with My Aunt (film) : The film is loosely based on the 1969 novel of the same name Graham Greene . The film stars Maggie Smith and Jay Presson Allen and Hugh Wheeler . London bank manager Henry Pulling (Alec McCowen) meets eccentric Augusta Bertram (Maggie Smith) who claims to be his aunt . She invites him back to her apartment, where her lover, an African fortune teller named Zachary Wordsworth (Louis Gossett Jr. Louis Goss Augusta is smuggling £50,000 out of England and transporting it to Turkey for a gangster named Crowder (Robert Flemyng) in exchange for a £10,000 fee she can put toward the ransom . The two board the Orient Express, where Henry meets Tooley (Cindy Williams) and gets him to smoke marijuana .

tabs and chords, guitar tabs, music transcription, music technology, deep learning, music information retrieval, transcribe into tabs & chords, chordify, music renditions, songsterr, reverbnation, tabulature, bollywood chords, ultimate guitar, yousician, guitar lessons, acoustic guitar, electric guitar, guitar tuner, 911 tabs