Ukulele Tabs for Too Much Love Will Kill You (guitar Solo)

(/) Slide Up  (\) Slide Down  (h) Hammer On  (p) Pull Off  (b) Bend (r) Release (v) Vibrato (x) Muted

Tabs for Song : 
BPM : 200

Song lyrics here 
A|--2--3--5-----------------------------------------------------2--5-----3--2--0--0-----------------------------
E|-----------3--------0--2--3--------------------------------3--------------------------3--3--2--2--------------
C|-----------------------------2--------4--2--0-----2-----2-----------------------------------------4--6--4--2--
G|--------------------------------------------------------------------------------------------------------------

Song lyrics here 

A|--------2--0--------------------------------7--5--3--2--0-----2--0--------------12-12-12-14-12-10-9--10-9--7--------------
E|-----3--------3-----2--3--2-----2--3--0-----------------------------3--2--0--------------------------------------7--5-----
C|--2-----------------------------------------------------------------------------------------------------------------------
G|--------------------------------------------------------------------------------------------------------------------------


Use manual mode to free up cursor. Paste any tab in acousterr tab maker and we'll play it !!!
A|--------2-----------0-----------0-----------0-----
E|-----3-----3-----3-----3-----2-----2-----2-----2--
C|--2-----------2-----------2-----------2-----------
G|--------------------------------------------------
tabs and chords, guitar tabs, music transcription, music technology, deep learning, music information retrieval, transcribe into tabs & chords, chordify, music renditions, songsterr, reverbnation, tabulature, bollywood chords, ultimate guitar, yousician, guitar lessons, acoustic guitar, electric guitar, guitar tuner, 911 tabs