Guitar Tabs for Too Good At Goodbyes - Sam Smith

[Main Riff]
e|-----------------------------
B|--1-----1--1--1--3--1--------
G|-----------------------2-----
D|-----------------------------
A|-----------------------------
E|-----------------------------

e|-----------------------------------
B|-----------------------------------
G|--0-----2--3--2--0--------0--2-----
D|--------------------3--3-----------
A|-----------------------------------
E|-----------------------------------

e|-----------------------------------
B|--1-----1--1--1--3--1--1-----------
G|--------------------------0--------
D|-----------------------------3-----
A|-----------------------------------
E|-----------------------------------

e|-----------------------------------
B|-----------------------------------
G|--0-----2--3--2--0--------0--2-----
D|--------------------3--3-----------
A|-----------------------------------
E|-----------------------------------

e|-----------------------------------------------------------------------------------------------------------
B|--------1--1--1--1--1--1--1-----------1--1--1--1--1--1--1--------------------------------------------------
G|-----------------------------2--2--------------------------2--2-----0--0--0--0--2--3--2--0--------0--2-----      
D|--3--------------------------------------------------------------3--------------------------3--3-----------
A|-----------------------------------------------------------------------------------------------------------
E|-----------------------------------------------------------------------------------------------------------

e|-----------------------------------------------------------------------------------------------------------
B|--------1--1--1--1--1--1--1-----------1--1--1--1--1--1--1--------------------------------------------------
G|-----------------------------2--2--------------------------2--2-----0--0--0--0--2--3--2--0--------0--2-----      
D|--3--------------------------------------------------------------3--------------------------3--3-----------
A|-----------------------------------------------------------------------------------------------------------
E|-----------------------------------------------------------------------------------------------------------

e|--------------------------------------------------------------------------------------
B|--------------------1-----------------------------------------------------------------
G|-----------0-----------2--0-----0--2--2-----------0--2-----0--0-----3--2--0-----------
D|--3-----3-----3--3-----------3--------------3--3--------3--------3-----------3--0-----
A|--------------------------------------------------------------------------------------
E|--------------------------------------------------------------------------------------

e|-----------------------------------------------------------------------------------
B|-----------------1--1--------------------------------------------------------------
G|-----------------------2--0-----0--2--2-----------0--2-----0-----3--2--0-----------
D|--3-----3--3--3--------------3--------------3--3--------3-----3-----------3--------
A|-----------------------------------------------------------------------------------
E|-----------------------------------------------------------------------------------

e|-----------------------------------------------------------------------------------------------
B|-----------------------------1--1--1--1--3--1--------------------------1--1--1--1--1--3--1-----
G|--------------------0-----------------------------------------0--------------------------------
D|-----------------0-----3-----------------------------------0-----2-----------------------------
A|--3-----3--3--3--------------------------------3--3--3--3--------------------------------------
E|-----------------------------------------------------------------------------------------------
tabs and chords, guitar tabs, music transcription, music technology, deep learning, music information retrieval, transcribe into tabs & chords, chordify, music renditions, songsterr, reverbnation, tabulature, bollywood chords, ultimate guitar, yousician, guitar lessons, acoustic guitar, electric guitar, guitar tuner, 911 tabs