Tom Quayle - Guitar Tabs

(/) Slide Up  (\) Slide Down  (h) Hammer On  (p) Pull Off  (b) Bend (r) Release (v) Vibrato (x) Muted

Tabs for Song : 
BPM :20
E|-----------------------------------------5--7--8--
B|-----------------------------5--------7-----------
G|--------------4--7--4--5--6-----6--7--------------
D|-----------5--------------------------------------
A|-----5--7-----------------------------------------
E|--------------------------------------------------

E|--9--8--7--5--------------5-----------------------
B|--------------7--5--6--7-----8--7--5-----7--5-----
G|--------------------------------------7--------7--
D|--------------------------------------------------
A|--------------------------------------------------
E|-----------------------------------------------a--

E|--------------------------------------------------
B|-----------5--------------------------------------
G|--4--5--6-----6--5--4--------------4--------------
D|-----------------------7--4--5--7-----5--------5--
A|-----------------------------------------7--5-----
E|--i-----------------------------------------------

E|--------------------------------------------------
B|-----------------------------------------7--------
G|--------------------------6--9--6--7--9-----7-----
D|-----------5--9--5--7--9-----------------------9--
A|--5--7--9-----------------------------------------
E|--------------------------------------------------

E|--------------------------------------------------
B|--------------------------------------------------
G|-----------7-----------------------------------7--
D|--7--8--9-----9--8--7--------------7--------9-----
A|-----------------------10-7--8--9-----9--10-------
E|--------------------------------------------------

E|--------------------------10-12-13-14-13-12-10----
B|--------------10-------12----------------------12-
G|--11-7--9--11----11-12----------------------------
D|--------------------------------------------------
A|--------------------------------------------------
E|--------------------------------------------------

E|-----------10-------------------------------------------------------------------------------------------------------------------------------------------------------------------
B|--10-11-12----12-11-10-------------10-------------------------------------------------------------------------------------------------------------------------------------------
G|-----------------------12-9--11-12----12-11-9-----------------------------------------------------------------------------------------------------------------------------------
D|-----------------------------------------------12-------------------------------------------------------------------------------------------------------------------------------
A|--------------------------------------------------------------------------------------------------------------------------------------------------------------------------------
E|--------------------------------------------------------------------------------------------------------------------------------------------------------------------------------
tabs and chords, guitar tabs, music transcription, music technology, deep learning, music information retrieval, transcribe into tabs & chords, chordify, music renditions, songsterr, reverbnation, tabulature, bollywood chords, ultimate guitar, yousician, guitar lessons, acoustic guitar, electric guitar, guitar tuner, 911 tabs