To Die For - Guitar Tabs

(/) Slide Up  (\) Slide Down  (h) Hammer On  (p) Pull Off  (b) Bend (r) Release (v) Vibrato (x) Muted

Tabs for Song : 
BPM : 200

Song lyrics here 
E|--------------------------------------------------------------------------------------------------------------3--5--3-----------------------------------------
B|--1-----1-----1-----1-----1-----1-----1-----1-----1-----1-----1-----1--5--3--1-----1-----1-----1--0--1--------------------3--3--5-----5--3--------5--3--------
G|-----2-----2-----2-----2-----2-----2-----2-----2-----0-----0-----0--------------2-----2-----2-----------------------------------------------5-----------5-----
D|--------------------------------------------------------------------------------------------------------------------------------------------------------------
A|--------------------------------------------------------------------------------------------------------------------------------------------------------------
E|--------------------------------------------------------------------------------------------------------------------------------------------------------------

E|--3--5--3-----------------------------------------5--5--5--3-----------3--------3--------5--5--5--3-----------------------------------------------------------
B|--------------3--3--5-----5--3--------5--3--------------------5--3--3-----5--3-----5-----------------5--3--------5--5--3--5--5--3--5--3--------------5--3--5--
G|--------------------------------5-----------5--------------------------------------------------------------5-----------------------------5--------------------
D|-----------------------------------------------------------------------------------------------------------------------------------------------5--------------
A|--------------------------------------------------------------------------------------------------------------------------------------------------------------
E|--------------------------------------------------------------------------------------------------------------------------------------------------------------

E|-----------------------------------------------------------------------------------------------------------------------------------------------------------------
B|--3--5--3--5--------------5--5--5--3--5--3--6--5--3-----3--5--3-----------5--5--5--3--5--3--------------5--5--5--3--5--3--------------5--5--3--5--3--5--3--6--5--
G|--------------5--------------------------------------5-----------5--2-----------------------5-----------------------------5--------------------------------------
D|--------------------5-----------------------------------------------------------------------------5-----------------------------5--------------------------------
A|-----------------------------------------------------------------------------------------------------------------------------------------------------------------
E|-----------------------------------------------------------------------------------------------------------------------------------------------------------------

E|-----------------------------------------------------------------3--5--3-----------------------------------------------5--8--5-----3--3-----------------------3--3--
B|--3-----3--5--3-----------------3--3--3-----3--------5-----------------------3--3--5-----5--3--------5--3-----------------------------------3-----5--3--------------
G|-----5-----------5-----2-----2-----------5-----5-----------5-----------------------------------5-----------5-----5-----------------------------5--------5-----------
D|--------------------------------------------------------------------------------------------------------------------------------------------------------------------
A|--------------------------------------------------------------------------------------------------------------------------------------------------------------------
E|--------------------------------------------------------------------------------------------------------------------------------------------------------------------

E|--------------------3--3-----------5--5--5--3-----------3--------3--------5--5--5--3--------------------------------------------------------------------------------
B|-----5--5--3-----------------5-----------------5--3--3-----5--3-----5-----------------5--3--------5--5--3--5--5--3--5--3--------------5--3--5--3--5--5--3-----------
G|--------------5-----------------------------------------------------------------------------5-----------------------------5--------------------------------5--------
D|--------------------------------------------------------------------------------------------------------------------------------5--------------------------------5--
A|--------------------------------------------------------------------------------------------------------------------------------------------------------------------
E|--------------------------------------------------------------------------------------------------------------------------------------------------------------------

E|-----------------------------------------------------------------------------------------------------------------------------------------------------------------------
B|--5--5--5--3--5--6--5--3-----3--5--3-----------5--5--5--3--5--3--------------5--5--5--3--5--------------5--5--3--5--3--5--3--6--5--3-----3--5--3--------------3--3--3--
G|--------------------------5-----------5--2-----------------------5--------------------------5-----------------------------------------5-----------5--2-----2-----------
D|-----------------------------------------------------------------------5--------------------------5--------------------------------------------------------------------
A|-----------------------------------------------------------------------------------------------------------------------------------------------------------------------
E|-----------------------------------------------------------------------------------------------------------------------------------------------------------------------

E|--------------------------------------------------------3-----------------------------------------------------------------------3--------------------------------------
B|-----3-----5--------------3--3--3-----3-----5-----------------------------3--3--3-----3--------5--------------5-----3-----5--------------------------------------------
G|--5-----5--------5-----------------5-----5--------5-----------4-----2--------------5-----------------5--------------------------------4--2-----------------------------
D|-----------------------------------------------------------------------------------------------------------------------------------------------------------------------
A|-----------------------------------------------------------------------------------------------------------------------------------------------------------------------
E|-----------------------------------------------------------------------------------------------------------------------------------------------------------------------

E|--------------------------------------------------------------------------------------------------------------------------------------------------------------------------
B|--5--5--3--5--5--3--5--3--------------5--3--5--3--5--5--3--------------5--5--5--3--5--3--6--5--3-----3--5--3-----------5--5--5--3--5--3--------------5--5--5--3--5--3-----
G|--------------------------5--------------------------------5--------------------------------------5-----------5--2-----------------------5-----------------------------5--
D|--------------------------------5--------------------------------5-----------------------------------------------------------------------------5--------------------------
A|--------------------------------------------------------------------------------------------------------------------------------------------------------------------------
E|--------------------------------------------------------------------------------------------------------------------------------------------------------------------------

E|-----------------------------------------------------------------------------------------------------------------------------------3-----------------------------------------
B|-----------5--5--3--5--3--5--3--6--5--3-----3--5--3--------------3--3--3-----3-----5-----------------3--3--3-----3-----5-----------------------------------------------------
G|-----------------------------------------5-----------5--2-----2-----------5-----5--------5--------5-----------5-----5--------5-----------4-----2-----------5--2--5--2--5--2--
D|-----5-----------------------------------------------------------------------------------------------------------------------------------------------------------------------
A|-----------------------------------------------------------------------------------------------------------------------------------------------------------------------------
E|-----------------------------------------------------------------------------------------------------------------------------------------------------------------------------

E|-----------------------
B|-----------------------
G|--5--------2-----------
D|-----------------------
A|-----------------------
E|-----------------------

E|--
B|--
G|--
D|--
A|--
E|--

Song lyrics here 
E|--
B|--
G|--
D|--
A|--
E|--

Use manual mode to free up cursor. Paste any tab in acousterr tab maker and we'll play it !!!

About To Die For (1989 film) : To Die For (also known as Dracula: The Love Story) is a horror-romance film directed by Deran Sarafian . Brendan Hughes, Duane Jones (in his final Vladimir Tepes resurfaces in Los Angeles with a new look, new life and new love . But with the new life comes an old nemesis who has waited an The film was given a limited release theatrically in the United States by Skouras Pictures in 1989.

tabs and chords, guitar tabs, music transcription, music technology, deep learning, music information retrieval, transcribe into tabs & chords, chordify, music renditions, songsterr, reverbnation, tabulature, bollywood chords, ultimate guitar, yousician, guitar lessons, acoustic guitar, electric guitar, guitar tuner, 911 tabs