Guitar Tabs for Titanic

(/) Slide Up  (\) Slide Down  (h) Hammer On  (p) Pull Off  (b) Bend (r) Release (v) Vibrato (x) Muted

Tabs for Song : 

Song lyrics here
E|---------------------------1p0-----------3---------------1\0--------------------
B|---1/3---3/5--------------------3--1--3-----------------------1-----------------
G|------------------------------------------------------------------------0p2--0--
D|--------------------------------------------------------------------------------
A|--------------------------------------------------------------------------------
E|--------------------------------------------------------------------------------

E|---------------------------------1p0-----------3--------0---3/5--5--3--------
B|---------1/3---3/5--5-----------------3--1--3-----------------------------3--
G|-----------------------------------------------------------------------------
D|-----------------------------------------------------------------------------
A|-----------------------------------------------------------------------------
E|-----------------------------------------------------------------------------

E|-----------------------------------------------------------------------------------------------------------------
B|-----1-----1--1-----1-----0-----1--------1-----0-----1--------3--5-----3-----1-----1--1-----1--0--1--------------
G|-----------------------------------------------------------------------------------------------------------2--0--
D|-----------------------------------------------------------------------------------------------------------------
A|-----------------------------------------------------------------------------------------------------------------
E|-----------------------------------------------------------------------------------------------------------------

E|-----------------------------------------------------------------------------------
B|--------------1--3--5--6--7-----7--7-----7-----6-----7-----7--6--7-----5--3--
G|-----------2-----------------------------------------------------------------
D|--3--2--3--------------------------------------------------------------------
A|-----------------------------------------------------------------------------
E|-----------------------------------------------------------------------------

Song lyrics here
E|--
B|--
G|--
D|--
A|--
E|--

Paste any tab in acousterr's tab maker and we'll play it !!!
Now supports capo and sound effects for vibrato/pull-off/hammer/bends/mutes etc !!! Checkout help section
tabs and chords, guitar tabs, music transcription, music technology, deep learning, music information retrieval, transcribe into tabs & chords, chordify, music renditions, songsterr, reverbnation, tabulature, bollywood chords, ultimate guitar, yousician, guitar lessons, acoustic guitar, electric guitar, guitar tuner, 911 tabs