Guitar Tabs for Time Of Your Life

(/) Slide Up  (\) Slide Down  (h) Hammer On  (p) Pull Off  (b) Bend (r) Release (v) Vibrato (x) Muted

Verse: Play 4X

E|--------------------------------------------------------------------------
B|--------3-----------------3-----------------3-----------------3-----------
G|-----0-----0-----0-----0-----0-----0-----0-----0-----0-----3-----3-----3--
D|--------------------------------------------------------0-----------0-----
A|--------------------------------------3-----------3-----------------------
E|--3-----------3-----3-----------3-----------------------------------------


Bridge: Play 2X

E|--------------------------------------------------------------------------
B|--------3-----------------3-----------------3-----------------3-----------
G|-----0-----0-----0-----0-----0-----0-----0-----0-----0-----0-----0-----0--
D|--3-----------3-----0-----------0-----------------------------------------
A|--------------------------------------3-----------3-----------------3-----
E|--------------------------------------------------------3-----------------

Pre Chorus: Play 2x

E|--------------------------------------------------------------------------
B|--------0-----------------3-----------------0-----------------3-----------
G|-----0-----0-----0-----0-----0-----0-----0-----0-----0-----0-----0-----0--
D|--------------------------------------------------------------------------
A|--------------------------------------------------------------------------
E|--0-----------0-----3-----------3-----0-----------0-----3-----------3-----

Chorus: Play Through Rest Of Song
E|--3--------------0-----------------2--
B|--3--------------1-----------------3--
G|--4--------------0-----------------2--
D|--5--------------2-----------------0--
A|--5--------------3--------------------
E|--3-----------------------------------



tabs and chords, guitar tabs, music contests, music covers, songsterr, reverbnation, renditions, tabulature, bollywood chords, ultimate guitar, yousician, guitar lessons, torrins, fender, gibson, acoustic guitar, electric guitar, youtube covers, gootar, guitar tuner, A-Z tabs, 911 tabs