Ukulele Tabs for Time Adventure

(/) Slide Up  (\) Slide Down  (h) Hammer On  (p) Pull Off  (b) Bend (r) Release (v) Vibrato (x) Muted

Time Adventure - Rebecca Sugar, Tim Kiefer

[Intro (2x)]:

A|--------2--0--------2--0--------7--5--------7--5--
E|--------0--0--------0--0--------5--5--------5--5--
C|-----0--0--0-----0--0--0-----5--5--5-----5--5--5--
G|--------0--0--------0--0--------5--5--------5--5--


[Verse:]

Time is an illusion that helps things make sense
A|-----0-----2--------2--0--
E|-----0-----1--------0--0--
C|-----5-----2-----0--0--0--
G|-----5-----0--------0--0--

So we are always living in the present tense
A|-----0-----2--------2--0--
E|-----0-----1--------0--0--
C|-----5-----2-----0--0--0--
G|-----5-----0--------0--0--

It seems unforgiving when a good thing ends
A|-----0-----2--------2--0--
E|-----0-----1--------0--0--
C|-----5-----2-----0--0--0--
G|-----5-----0--------0--0--

But you and I will always be back then
A|-----0-----2--------2--0--
E|-----0-----1--------0--0--
C|-----5-----2-----0--0--0--
G|-----5-----0--------0--0--

You and I will always be back then
A|-----0-----2--------2--0--
E|-----0-----1--------0--0--
C|-----5-----2-----0--0--0--
G|-----5-----0--------0--0--


[Chorus:]

Singing: will happen, happening happened
A|-----0-----2--------2--0--
E|-----0-----1--------0--0--
C|-----5-----2-----0--0--0--
G|-----5-----0--------0--0--

Will happen, happening, happened?
A|-----0-----2--------2--0--
E|-----0-----1--------0--0--
C|-----5-----2-----0--0--0--
G|-----5-----0--------0--0--

And we will happen again and again
A|-----0-----2--------2--0--
E|-----0-----1--------0--2--
C|-----5-----2-----0--0--0--
G|-----5-----0--------0--2--

'Cause you and I will always be back then
A|-----0-----2--------2--0--
E|-----0-----1--------0--0--
C|-----5-----2-----0--0--0--
G|-----5-----0--------0--0--

You and I will always be back then
A|-----0-----2--------2--0--
E|-----0-----1--------0--0--
C|-----5-----2-----0--0--0--
G|-----5-----0--------0--0--

Will happen, happening happened
A|-----0-----2--------2--0--
E|-----0-----1--------0--0--
C|-----5-----2-----0--0--0--
G|-----5-----0--------0--0--

Will happen, happening happened
A|-----0-----2--------2--0--
E|-----0-----1--------0--0--
C|-----5-----2-----0--0--0--
G|-----5-----0--------0--0--

And we'll happen again and again
A|-----0-----2--------2--0--
E|-----0-----1--------0--2--
C|-----5-----2-----0--0--0--
G|-----5-----0--------0--2--

'Cause you and I will always be back then
A|-----0-----2--------2--0--
E|-----0-----1--------0--0--
C|-----5-----2-----0--0--0--
G|-----5-----0--------0--0--


[Bridge:]

If there was some amazing force outside of time to take us back to where we were
A|-----1-----------1---3p1--0-----0-----------0--
E|-----3-----------3---0p---1-----1--------1-----
C|-----2--------0--0---0p---0-----2-----2--------
G|-----0-----------0---0p---2-----2--------------

And hang each moment up like pictures on the wall
Inside a billion tiny frames so we can see it all, all, all
A|-----1-----------1---3p1--0-----0-----------0--3-----0-----2--
E|-----3-----------3---0p---1-----1--------1-----1-----1-----1--
C|-----2--------0--0---0p---0-----2-----2--------2-----2-----2--
G|-----0-----------0---0p---2-----2--------------2-----2-----0--
 
 
[Outro:]

It will look like, will happen, happening happened?
A|-----0-----2--------2--0--
E|-----0-----1--------0--0--
C|-----5-----2-----0--0--0--
G|-----5-----0--------0--0--

Will happen, happening happened
A|-----0-----2--------2--0--
E|-----0-----1--------0--0--
C|-----5-----2-----0--0--0--
G|-----5-----0--------0--0--

And there we are again and again
A|-----0-----2--------2--0--
E|-----0-----1--------0--2--
C|-----5-----2-----0--0--0--
G|-----5-----0--------0--2--

'Cause you and I will always be back then
A|-----0-----2--------2--0--
E|-----0-----1--------0--0--
C|-----5-----2-----0--0--0--
G|-----5-----0--------0--0--

You and I will always be back then
A|-----0-----2--------2--0--
E|-----0-----1--------0--0--
C|-----5-----2-----0--0--0--
G|-----5-----0--------0--0--

Will happen, happening happened
A|-----0-----2--------2--0--
E|-----0-----1--------0--0--
C|-----5-----2-----0--0--0--
G|-----5-----0--------0--0--

Will happen, happening happened
A|-----0-----2--------2--0--
E|-----0-----1--------0--2--
C|-----5-----2-----0--0--0--
G|-----5-----0--------0--2--

And there we are again and again
A|-----0-----2--------2--0--
E|-----0-----1--------0--0--
C|-----5-----2-----0--0--0--
G|-----5-----0--------0--0--

'Cause you and I will always be back then
A|-----0-----2--------2--0--
E|-----0-----1--------0--0--
C|-----5-----2-----0--0--0--
G|-----5-----0--------0--0--

You and I will always be back then
A|-----0-----2--------2--0--
E|-----0-----1--------0--0--
C|-----5-----2-----0--0--0--
G|-----5-----0--------0--0--

You and I will always be back then
A|-----0-----2--------2--0--
E|-----0-----1--------0--0--
C|-----5-----2-----0--0--0--
G|-----5-----0--------0--0--

You and I will always be back then, that's why
A|-----0-----2--------2-----0--
E|-----0-----1--------0-----2--
C|-----5-----2-----0--0-----0--
G|-----5-----0--------0-----2--

You and I will always be best friends
A|-----0-----2--------2-----3--
E|-----0-----1--------0-----0--
C|-----5-----2-----0--0-----0--
G|-----5-----0--------0-----0--
tabs and chords, guitar tabs, music transcription, music technology, deep learning, music information retrieval, transcribe into tabs & chords, chordify, music renditions, songsterr, reverbnation, tabulature, bollywood chords, ultimate guitar, yousician, guitar lessons, acoustic guitar, electric guitar, guitar tuner, 911 tabs