Bass Tabs for Tides Of War

(/) Slide Up  (\) Slide Down  (h) Hammer On  (p) Pull Off  (b) Bend (r) Release (v) Vibrato (x) Muted

Tabs for Song : 
BPM : 200

Song lyrics here 

Song lyrics here
Intro
F|-----------------------------------------------------------------------------------------------------------------------------------------------
C|-----------------------------------------------------------------------------------------------------------------------------------------------
G|---------------------5h-8p-5h-8p5------------------------4h-7p-4h-7p4------------------------5h-8p-5h-8p5------4h-7p-4h-7p4------3h-6p-3h-6h3--
D|--0--0--0--0--0--0--------------------0--0--0--0--0--0--------------------0--0--0--0--0--0-----------------0-----------------0-----------------

pre verse/ verse
F|-----------------------------------------------------------------------------------------------
C|-----------------------------------------------------------------------------------------------
G|--------------------------------------------------------------------------1--1--1-----3--3--3--
D|--1--1--1-----1--1--1-----1--1--1-----1--1--1-----3--3--3-----1--1--1--------------------------

F|-----------------------------------------------------------------------------------------------
C|-----------------------------------------------------------------------------------------------
G|--------------------------------------------------------------------------0--0--0-----1--1--1--
D|--0--0--0-----0--0--0-----0--0--0-----0--0--0-----1--1--1-----0--0--0--------------------------

pre chorus
F|--------------------------------------------------------------------------------------------------------------------
C|--------------------------------------------------------------------------------------------------------------------
G|--------1--------1-------3---------1--------1--------3--------------------------------------------------------------
D|--1--1-----1--1-----1--1-----1--1-----1--1-----1--1-----0--0--0--0-----0--0--0--0--1-----0--0--0--0-----0--0--0--1--

spider riff - listen for number of ezch note - also the same when riff slows down
F|-----------------------------------------------------------------------------
C|-----------------------------------------------------------------------------
G|--0--0--0--0-----8--8--8--8-----5--5--5--5-----7--7--7--7-----3--3--2--2-----
D|-----------------------------------------------------------------------------

Blast riff/before solo
F|-----------------------------------------------------------------------------------------------------------------------------------------------------------------------------
C|-----------------------------------------------------------------------------------------------------------------------------------------------------------------------------
G|--------------------------5--8--5--8--5-----------------------------4--7--4--7--4--------------------------5--8--5--8--5--5-----4--7--4-----3--6--3-----2--5--2-----1--4--1--
D|--0--0--0-----0--0--0-----------------------0--0--0-----0--0--0-----------------------0--0--0-----0--0--0--------------------------------------------------------------------

solo

F|--------------------------------------------------------------------------------------------------------------------------------------
C|--------------------------------------------------------------------------------------------------------------------------------------
G|--------1-----------1-----------3-----------1-----------1-----------3-----------0--------0--------1--------0-----------0-----------1--
D|--1--1--------1--1--------1--1--------1--1--------1--1--------1--1--------0--0-----0--0-----0--0-----0--0--------0--0--------0--0-----

F|-----------------------------------------------------------------------------------------------------------------------------------------------------------------------------------------------
C|-----------------------------------------------------------------------------------------------------------------------------------------------------------------------------------------------
G|--------------------------------------------------------------------------3--3--3-----5--5--5-----------------------------------------------------------------------------3--3--3-----5--5--5--
D|--3--3--3-----3--3--3-----3--3--3-----3--3--3-----5--5--5-----3--3--3-----------------------------3--3--3-----3--3--3-----3--3--3-----3--3--3-----5--5--5-----3--3--3--------------------------

F|----------------------------------------------------------------------------------------
C|-----------------------------------------------------------------------------------------
G|-----------------------------------------------------------------2--2--2-----3--3--3-----
D|-----2--2--2-----2--2--2-----2--2--2-----3--3--3-----2--2--2----------------------------- manual mode to free up cursor. Paste any tab in acousterr tab maker and we'll play it !!!

Structure

Intro x




tabs and chords, guitar tabs, music transcription, music technology, deep learning, music information retrieval, transcribe into tabs & chords, chordify, music renditions, songsterr, reverbnation, tabulature, bollywood chords, ultimate guitar, yousician, guitar lessons, acoustic guitar, electric guitar, guitar tuner, 911 tabs