Through The Trees - Low Shoulder - Guitar Tabs

Clean
    
                                                                                                                                                                                                                                                                                                                                                                                                                                                                                                                                                                                                                                                                                                                                                                                                                                                                                                                                                                                                                                                                                                                                                                                              
E|-------------------------|-----------------------|
B|-------------------------|-----------------------|
G|-------------------------|-----------------------|
D|--3--3--3--3--3--3--3--3-|3--3--3--3--3--3--3--3-|
A|--3--3--3--3--3--3--3--3-|3--3--3--3--3--3--3--3-|
E|--1--1--1--1--1--1--1--1-|1--1--1--1--1--1--1--1-|

    
                                                                                                                                                                                                                                                                                                                                                                                                                                                                                                                                                                                                                                                                                                                                                                                                                                                                                                                                                                                                                                                                                                                                                                                              
E|-------------------------|-----------------------|
B|-------------------------|-----------------------|
G|-------------------------|-----------------------|
D|--3--3--3--3--3--3--3--3-|3--3--3--3--3--3--3--3-|
A|--3--3--3--3--3--3--3--3-|3--3--3--3--3--3--3--3-|
E|--1--1--1--1--1--1--1--1-|1--1--1--1--1--1--1--1-|

    
                                                                                                                                                                                                                                                                                                                                                                                                                                                                                                                                                                                                                                                                                                                                                                                                                                                                                                                                                                                                                                                                                                                                                                                              
E|-------------------------|-----------------------|
B|-------------------------|-----------------------|
G|-------------------------|-----------------------|
D|--5--5--5--5--5--5--5--5-|5--5--5--5--5--5--5--5-|
A|--5--5--5--5--5--5--5--5-|5--5--5--5--5--5--5--5-|
E|--3--3--3--3--3--3--3--3-|3--3--3--3--3--3--3--3-|

    
                                                                                                                                                                                                                                                                                                                                                                                                                                                                                                                                                                                                                                                                                                                                                                                                                                                                                                                                                                                                                                                                                                                                                                                              
E|-------------------------|-----------------------|
B|-------------------------|-----------------------|
G|-------------------------|-----------------------|
D|--5--5--5--5--5--5--5--5-|5--5--5--5--5--5--5--5-|
A|--5--5--5--5--5--5--5--5-|5--5--5--5--5--5--5--5-|
E|--3--3--3--3--3--3--3--3-|3--3--3--3--3--3--3--3-|

    
                                                                                                                                                                                                                                                                                                                                                                                                                                                                                                                                                                                                                                                                                                                                                                                                                                                                                                                                                                                                                                                                                                                                                                                              
E|-------------------------|-----------------------|
B|-------------------------|-----------------------|
G|-------------------------|-----------------------|
D|--3--3--3--3--3--3--3--3-|3--3--3--3--3--3--3--3-|
A|--3--3--3--3--3--3--3--3-|3--3--3--3--3--3--3--3-|
E|--1--1--1--1--1--1--1--1-|1--1--1--1--1--1--1--1-|

    
                                                                                                                                                                                                                                                                                                                                                                                                                                                                                                                                                                                                                                                                                                                                                                                                                                                                                                                                                                                                                                                                                                                                                                                              
E|-------------------------|-----------------------|
B|-------------------------|-----------------------|
G|-------------------------|-----------------------|
D|--3--3--3--3--3--3--3--3-|3--3--3--3--3--3--3--3-|
A|--3--3--3--3--3--3--3--3-|3--3--3--3--3--3--3--3-|
E|--1--1--1--1--1--1--1--1-|1--1--1--1--1--1--1--1-|

    
                                                                                                                                                                                                                                                                                                                                                                                                                                                                                                                                                                                                                                                                                                                                                                                                                                                                                                                                                                                                                                                                                                                                                                                              
E|-------------------------|-----------------------|
B|-------------------------|-----------------------|
G|-------------------------|-----------------------|
D|--5--5--5--5--5--5--5--5-|5--5--5--5--5--5--5--5-|
A|--5--5--5--5--5--5--5--5-|5--5--5--5--5--5--5--5-|
E|--3--3--3--3--3--3--3--3-|3--3--3--3--3--3--3--3-|

    
                                                                                                                                                                                                                                                                                                                                                                                                                                                                                                                                                                                                                                                                                                                                                                                                                                                                                                                                                                                                                                                                                                                                                                                              
E|-------------------------|-----------------------|
B|-------------------------|-----------------------|
G|-------------------------|-----------------------|
D|--5--5--5--5--5--5--5--5-|5--5--5--5--5--5--5--5-|
A|--5--5--5--5--5--5--5--5-|5--5--5--5--5--5--5--5-|
E|--3--3--3--3--3--3--3--3-|3--3--3--3--3--3--3--3-|

    
                                                                                                                                                                                                                                                                                                                                                                                                                                                                                                                                                                                                                                                                                                                                                                                                                                                                                                                                                                                                                                                                                                                                                                                              
E|-------------------------|-----------------------|
B|-------------------------|-----------------------|
G|-------------------------|-----------------------|
D|--3--3--3--3--3--3--3--3-|3--3--3--3--3--3--3--3-|
A|--3--3--3--3--3--3--3--3-|3--3--3--3--3--3--3--3-|
E|--1--1--1--1--1--1--1--1-|1--1--1--1--1--1--1--1-|

    
                                                                                                                                                                                                                                                                                                                                                                                                                                                                                                                                                                                                                                                                                                                                                                                                                                                                                                                                                                                                                                                                                                                                                                                              
E|-------------------------|-----------------------|
B|-------------------------|-----------------------|
G|-------------------------|-----------------------|
D|--3--3--3--3--3--3--3--3-|3--3--3--3--3--3--3--3-|
A|--3--3--3--3--3--3--3--3-|3--3--3--3--3--3--3--3-|
E|--1--1--1--1--1--1--1--1-|1--1--1--1--1--1--1--1-|

    
                                                                                                                                                                                                                                                                                                                                                                                                                                                                                                                                                                                                                                                                                                                                                                                                                                                                                                                                                                                                                                                                                                                                                                                              
E|-------------------------|-----------------------|
B|-------------------------|-----------------------|
G|-------------------------|-----------------------|
D|--3--3--3--3--3--3--3--3-|3--3--3--3--3--3--3--3-|
A|--3--3--3--3--3--3--3--3-|3--3--3--3--3--3--3--3-|
E|--1--1--1--1--1--1--1--1-|1--1--1--1--1--1--1--1-|

    
                                                                                                                                                                                                                                                                                                                                                                                                                                                                                                                                                                                                                                                                                                                                                                                                                                                                                                                                                                                                                                                                                                                                                                                              
E|-------------------------|-----------------------|
B|-------------------------|-----------------------|
G|-------------------------|-----------------------|
D|--5--5--5--5--5--5--5--5-|5--5--5--5--5--5--5--5-|
A|--5--5--5--5--5--5--5--5-|5--5--5--5--5--5--5--5-|
E|--3--3--3--3--3--3--3--3-|3--3--3--3--3--3--3--3-|

    
                                                                                                                                                                                                                                                                                                                                                                                                                                                                                                                                                                                                                                                                                                                                                                                                                                                                                                                                                                                                                                                                                                                                                                                              
E|-------------------------|-----------------------|
B|-------------------------|-----------------------|
G|-------------------------|-----------------------|
D|--3--3--3--3--3--3--3--3-|3--3--3--3--3--3--3--3-|
A|--3--3--3--3--3--3--3--3-|3--3--3--3--3--3--3--3-|
E|--1--1--1--1--1--1--1--1-|1--1--1--1--1--1--1--1-|

    
                                                                                                                                                                                                                                                                                                                                                                                                                                                                                                                                                                                                                                                                                                                                                                                                                                                                                                                                                                                                                                                                                                                                                                                              
E|-------------------------|-----------------------|
B|-------------------------|-----------------------|
G|-------------------------|-----------------------|
D|--3--3--3--3--3--3--3--3-|3--3--3--3--3--3--3--3-|
A|--3--3--3--3--3--3--3--3-|3--3--3--3--3--3--3--3-|
E|--1--1--1--1--1--1--1--1-|1--1--1--1--1--1--1--1-|

    
                                                                                                                                                                                                                                                                                                                                                                                                                                                                                                                                                                                                                                                                                                                                                                                                                                                                                                                                                                                                                                                                                                                                                                                              
E|-------------------------|-----------------------|
B|-------------------------|-----------------------|
G|-------------------------|-----------------------|
D|--5--5--5--5--5--5--5--5-|5--5--5--5--5--5--5--5-|
A|--5--5--5--5--5--5--5--5-|5--5--5--5--5--5--5--5-|
E|--3--3--3--3--3--3--3--3-|3--3--3--3--3--3--3--3-|

    
                                                                                                                                                                                                                                                                                                                                                                                                                                                                                                                                                                                                                                                                                                                                                                                                                                                                                                                                                                                                                                                                                                                                                                                              
E|-------------------------|-----------------------|
B|-------------------------|-----------------------|
G|-------------------------|-----------------------|
D|--3--3--3--3--3--3--3--3-|3--3--3--3--3--3--3--3-|
A|--3--3--3--3--3--3--3--3-|3--3--3--3--3--3--3--3-|
E|--1--1--1--1--1--1--1--1-|1--1--1--1--1--1--1--1-|

    
                                                                                                                                                                                                                                                                                                                                                                                                                                                                                                                                                                                                                                                                                                                                                                                                                                                                                                                                                                                                                                                                                                                                                                                              
E|-------------------------|-----------------------|
B|-------------------------|-----------------------|
G|--3--3--3--3--3--3--3--3-|3--3--3--3--3--3--3--3-|
D|--3--3--3--3--3--3--3--3-|3--3--3--3--3--3--3--3-|
A|--1--1--1--1--1--1--1--1-|1--1--1--1--1--1--1--1-|
E|-------------------------|-----------------------|

    
                                                                                                                                                                                                                                                                                                                                                                                                                                                                                                                                                                                                                                                                                                                                                                                                                                                                                                                                                                                                                                                                                                                                                                                              
E|-------------------------|-----------------------|
B|-------------------------|-----------------------|
G|-------------------------|-----------------------|
D|--3--3--3--3--3--3--3--3-|3--3--3--3--3--3--3--3-|
A|--3--3--3--3--3--3--3--3-|3--3--3--3--3--3--3--3-|
E|--1--1--1--1--1--1--1--1-|1--1--1--1--1--1--1--1-|

    
                                                                                                                                                                                                                                                                                                                                                                                                                                                                                                                                                                                                                                                                                                                                                                                                                                                                                                                                                                                                                                                                                                                                                                                              
E|-------------------------|-----------------------|
B|-------------------------|-----------------------|
G|--3--3--3--3--3--3--3--3-|3--3--3--3--3--3--3--3-|
D|--3--3--3--3--3--3--3--3-|3--3--3--3--3--3--3--3-|
A|--1--1--1--1--1--1--1--1-|1--1--1--1--1--1--1--1-|
E|-------------------------|-----------------------|

    
                                                                                                                                                                                                                                                                                                                                                                                                                                                                                                                                                                                                                                                                                                                                                                                                                                                                                                                                                                                                                                                                                                                                                                                              
E|-------------------------|-----------------------|
B|-------------------------|-----------------------|
G|-------------------------|-----------------------|
D|--3--3--3--3--3--3--3--3-|3--3--3--3--3--3--3--3-|
A|--3--3--3--3--3--3--3--3-|3--3--3--3--3--3--3--3-|
E|--1--1--1--1--1--1--1--1-|1--1--1--1--1--1--1--1-|

    
                                                                                                                                                                                                                                                                                                                                                                                                                                                                                                                                                                                                                                                                                                                                                                                                                                                                                                                                                                                                                                                                                                                                                                                              
E|-------------------------|-----------------------|
B|-------------------------|-----------------------|
G|-------------------------|3-----3-----3-----3----|
D|--5--5--5--5--5--5--5--5-|3-----3-----3-----3----|
A|--5--5--5--5--5--5--5--5-|1-----1-----1-----1----|
E|--3--3--3--3--3--3--3--3-|-----------------------|

    
                                                                                                                                                                                                                                                                                                                                                                                                                                                                                                                                                                                                                                                                                                                                                                                                                                                                                                                                                                                                                                                                                                                                                                                              
E|-------------------------|1----------------------|
B|-------------------------|1----------------------|
G|--3-----3-----3-----3----|2----------------------|
D|--3-----3-----3-----3----|3----------------------|
A|--1-----1-----1-----1----|3----------------------|
E|-------------------------|1----------------------|

    
    F                                                                                                                                                                                                                                                                                                                                                                                                                                                                                                                                                                                             
E|--1----------------------|
B|--3----------------------|
G|--3----------------------|
D|--3----------------------|
A|--1----------------------|
E|-------------------------|

    
    A#                                                                                                                                                                                                                                                                                                                                                                                                                                                                                                                                                                                             
E|--1----------------------|
B|--3----------------------|
G|--2----------------------|
D|--0----------------------|
A|-------------------------|
E|-------------------------|

    
    Dm                                                                                                                                                                                                                                                                                                                                                                                                                                                                                                                                                                                             
E|--1----------------------|
B|--3----------------------|
G|--3----------------------|
D|--3----------------------|
A|--1----------------------|
E|-------------------------|

    
    A#                                                                                                                                                                                                                                                                                                                                                                                                                                                                                                                                                                                             
E|--1----------------------|
B|--1----------------------|
G|--2----------------------|
D|--3----------------------|
A|--3----------------------|
E|--1----------------------|

    
    F                                                                                                                                                                                                                                                                                                                                                                                                                                                                                                                                                                                             
E|--1----------------------|
B|--3----------------------|
G|--3----------------------|
D|--3----------------------|
A|--1----------------------|
E|-------------------------|

    
    A#                                                                                                                                                                                                                                                                                                                                                                                                                                                                                                                                                                                             
E|--1----------------------|
B|--3----------------------|
G|--2----------------------|
D|--0----------------------|
A|-------------------------|
E|-------------------------|

    
    Dm                                                                                                                                                                                                                                                                                                                                                                                                                                                                                                                                                                                             
E|--1----------------------|
B|--3----------------------|
G|--3----------------------|
D|--3----------------------|
A|--1----------------------|
E|-------------------------|

About Wildling (band) : The band was formed in 2014 by members Ryan Levine and Andrew Ampaya . The band were originally signed to RCA Records as the band Test Your Reflex from 2004-2009 . Ryan Levine and Andrew Ampaya have been recording music and touring under different band names since 2004 . Wildling is the current name for the The original group was composed of five musicians (Ryan Levine, Andrew Ampaya, Sal Cortez, Ryan Clark, and Augustin Sanchez) They started out in the rehearsal rooms of a teen center in Thousand Oaks, California . Wildling (band)'s most popular songs include Low Shoulder. Wildling (band) The group has many notable artists like Ryan Levine,Andrew Ampaya. Their music is influenced by genres - indie rock , indie pop , alternative rock.

tabs and chords, guitar tabs, music transcription, music technology, deep learning, music information retrieval, transcribe into tabs & chords, chordify, music renditions, songsterr, reverbnation, tabulature, bollywood chords, ultimate guitar, yousician, guitar lessons, acoustic guitar, electric guitar, guitar tuner, 911 tabs