Guitar Tabs for This Is Mahgreb

(/) Slide Up  (\) Slide Down  (h) Hammer On  (p) Pull Off  (b) Bend (r) Release (v) Vibrato (x) Muted

This is Mahgreb 
BPM : 150


E|-----------------------------------------------------------------------------------------------------------------------------------------
B|-----------------------------------------------------------------------------------------------------------------------------------------
G|--------6-------6-------6-------6-------7-------7-------7---7--- 8---------9--------9---------9- 9--- 8--------7-------7-------7-------7-
D|------7---7---7---7---7---7---7-------9---9---9---9---9-----9---10-----11---11---11---11---11---11---10------9---9---9---9---9---9---9---
A|--7---------7-------7-------7-----7/9-------9-------9-------9---10---11--------11--------11-----11---10---9--------9-------9-------9-----
E|-----------------------------------------------------------------------------------------------------------------------------------------

 << Comment est-ce que vous avez passé la journée mes filles? >>   
E|--------------------------------------------------------------------
B|--------------------------------------------------------------------
G|--------6-------6-------6-------6-------7-------7-------7---7--- 8--
D|------7---7---7---7---7---7---7-------9---9---9---9---9-----9---10--
A|--7---------7-------7-------7-----7/9-------9-------9-------9---10--
E|--------------------------------------------------------------------

     Que j'avais bien la chance d'être avec cette famille-ci
E|---------------------------------------------------------------------------
B|---------------------------------------------------------------------------
G|--------9---------9---------9- 9--- 8--------7-------7-------7-------7-----
D|-----11---11---11---11---11---11---10------9---9---9---9---9---9---9-------
A|---11--------11--------11-----11---10---9--------9-------9-------9---------
E|---------------------------------------------------------------------------

    Où les garçons rangent la table après chaque repas
E|------------------------------------
B|------------------------------------
G|--------6-------6-------6-------6---
D|------7---7---7---7---7---7---7-----
A|--7---------7-------7-------7-------
E|------------------------------------

    Où la maman est si gentille c'est n'importe quoi!
E|--------------------------------------
B|--------------------------------------
G|------7-------7-------7--------7------
D|----9---9---9---9---9---9---9---------
A|--9-------9-------9-------9-----------
E|--------------------------------------

     Où ma soeur marveilleuse m'accompagne à chaque moment
E|---------------------------------------
B|---------------------------------------
G|--------9---------9---------9--------9-
D|-----11---11---11---11---11---11---11--
A|---11--------11--------11--------11----
E|---------------------------------------
  
    Je n'aurais jamais su qu'il extiste des personnes comme ça
E|--------------------------------------
B|--------------------------------------
G|-------7-------7-------7-------7------
D|-----9---9---9---9---9---9---9---9----
A|--9--------9-------9-------9----------
E|--------------------------------------
 
      
E|-----------------------------------------------------------------------------------------------------------------------------------------
B|-----------------------------------------------------------------------------------------------------------------------------------------
G|--------6-------6-------6-------6-------7-------7-------7---7---8---------9---------9---------9--9---8---------7-------7-------7-------7-
D|------7---7---7---7---7---7---7-------9---9---9---9---9-----9---10-----11---11---11---11---11---11---10------9---9---9---9---9---9---9---
A|--7---------7-------7-------7-----7/9-------9-------9-------9---10---11--------11--------11-----11---10---9--------9-------9-------9-----
E|-----------------------------------------------------------------------------------------------------------------------------------------

    L'mekla dial Mahgreb, aziz alia kulsi   
E|--------------------------------------------------------------------
B|--------------------------------------------------------------------
G|--------6-------6-------6-------6-------7-------7-------7---7--- 8--
D|------7---7---7---7---7---7---7-------9---9---9---9---9-----9---10--
A|--7---------7-------7-------7-----7/9-------9-------9-------9---10--
E|--------------------------------------------------------------------

    Bismillah, shbet, l'Hamdullah, bgit shbekia u tajin
E|---------------------------------------------------------------------------
B|---------------------------------------------------------------------------
G|--------9---------9---------9- 9--- 8--------7-------7-------7-------7-----
D|-----11---11---11---11---11---11---10------9---9---9---9---9---9---9-------
A|---11--------11--------11-----11---10---9--------9-------9-------9---------
E|---------------------------------------------------------------------------

    Kay ejbni anana kenklu mjmoeen
E|------------------------------------
B|------------------------------------
G|--------6-------6-------6-------6---
D|------7---7---7---7---7---7---7-----
A|--7---------7-------7-------7-------
E|------------------------------------

    Kay ejbni iftor fRamadan bleel
E|--------------------------------------
B|--------------------------------------
G|------7-------7-------7--------7------
D|----9---9---9---9---9---9---9---------
A|--9-------9-------9-------9-----------
E|--------------------------------------

    Kay ejbni tbsil wahed, ashra dnas
E|---------------------------------------
B|---------------------------------------
G|--------9---------9---------9--------9-
D|-----11---11---11---11---11---11---11--
A|--11--------11--------11--------11----
E|---------------------------------------
  
    Daiba canaraf lkoowa dial xubz u mlwi
E|--------------------------------------
B|--------------------------------------
G|-------7-------7-------7-------7------
D|-----9---9---9---9---9---9---9---9----
A|--9--------9-------9-------9----------
E|--------------------------------------
 
      
E|-----------------------------------------------------------------------------------------------------------------------------------------
B|-----------------------------------------------------------------------------------------------------------------------------------------
G|--------6-------6-------6-------6-------7-------7-------7---7---8---------9---------9---------9--9---8---------7-------7-------7-------7-
D|------7---7---7---7---7---7---7-------9---9---9---9---9-----9---10-----11---11---11---11---11---11---10------9---9---9---9---9---9---9---
A|--7---------7-------7-------7-----7/9-------9-------9-------9---10---11--------11--------11-----11---10---9--------9-------9-------9-----
E|-----------------------------------------------------------------------------------------------------------------------------------------

    After 21 days in Mahgreb it's no mystery  
E|--------------------------------------------------------------------
B|--------------------------------------------------------------------
G|--------6-------6-------6-------6-------7-------7-------7---7--- 8--
D|------7---7---7---7---7---7---7-------9---9---9---9---9-----9---10--
A|--7---------7-------7-------7-----7/9-------9-------9-------9---10--
E|--------------------------------------------------------------------

     That the locals don't see Islam as religion but a style de vie
E|---------------------------------------------------------------------------
B|---------------------------------------------------------------------------
G|--------9---------9---------9- 9--- 8--------7-------7-------7-------7-----
D|-----11---11---11---11---11---11---10------9---9---9---9---9---9---9-------
A|---11--------11--------11-----11---10---9--------9-------9-------9---------
E|---------------------------------------------------------------------------

    That there's flexibility in praying five times a day
E|------------------------------------
B|------------------------------------
G|--------6-------6-------6-------6---
D|------7---7---7---7---7---7---7-----
A|--7---------7-------7-------7-------
E|------------------------------------

    That there's no shame in not wearing a hijab everyday
E|--------------------------------------
B|--------------------------------------
G|------7-------7-------7--------7------
D|----9---9---9---9---9---9---9---------
A|--9-------9-------9-------9-----------
E|--------------------------------------

    There's diversity in views, it's not black, white it's grey
E|---------------------------------------
B|---------------------------------------
G|--------9---------9---------9--------9-
D|-----11---11---11---11---11---11---11--
A|---11--------11--------11--------11----
E|---------------------------------------
  
    And only people full of love and warmth, This is Mahgreb
E|--------------------------------------
B|--------------------------------------
G|-------7-------7-------7-------7------
D|-----9---9---9---9---9---9---9---9----
A|--9--------9-------9-------9----------
E|--------------------------------------
 
      
E|-----------------------------------------------------------------------------------------------------------------------------------------
B|-----------------------------------------------------------------------------------------------------------------------------------------
G|--------6-------6-------6-------6-------7-------7-------7---7---8---------9---------9---------9--9---8---------7-------7-------7-------7-
D|------7---7---7---7---7---7---7-------9---9---9---9---9-----9---10-----11---11---11---11---11---11---10------9---9---9---9---9---9---9---
A|--7---------7-------7-------7-----7/9-------9-------9-------9---10---11--------11--------11-----11---10---9--------9-------9-------9-----
E|-----------------------------------------------------------------------------------------------------------------------------------------
tabs and chords, guitar tabs, music transcription, music technology, deep learning, music information retrieval, transcribe into tabs & chords, chordify, music renditions, songsterr, reverbnation, tabulature, bollywood chords, ultimate guitar, yousician, guitar lessons, acoustic guitar, electric guitar, guitar tuner, 911 tabs