Guitar Tabs for Therapin Care Station Session The Brothers Osborne Intro Lick

(/) Slide Up  (\) Slide Down  (h) Hammer On  (p) Pull Off  (b) Bend (r) Release (v) Vibrato (x) Muted

Tabs & Chords
BPM : 104.0
Check Track 2 for Chord Positions 

                                                                                              
E|--0--------------------15-------0-----------------------------------------0-----------------
B|-----12-14-12-12-12-14-------------------------0-----0-----0-----------------------14-------
G|--------------------------11-------------------------------------------------12----------13-
D|-----------------------------11-------------------11-------------------11-------------------
A|--------------------------------------------11----------12-------11-------------------------
E|--------------------------------------12-14-------------------14----------------------------

             
E|-----12-13-
B|--14-------
G|-----------
D|-----------
A|-----------
E|-----------

Guitar Tabs for Therapin Care Station Session The Brothers Osborne Intro Lick






                                                                                              
E|--------------------------------------------------------------------------------------------
B|--------------------------------------------------------------------------------------------
G|--------------------------------------------------------------------------------------------
D|--------------------------------------------------------------------------------------------
A|--------------------------------------------------------------------------------------------
E|--------------------------------------------------------------------------------------------

             
E|-----------
B|-----------
G|-----------
D|-----------
A|-----------
E|-----------

tabs and chords, guitar tabs, music transcription, music technology, deep learning, music information retrieval, transcribe into tabs & chords, chordify, music renditions, songsterr, reverbnation, tabulature, bollywood chords, ultimate guitar, yousician, guitar lessons, acoustic guitar, electric guitar, guitar tuner, 911 tabs