Bass Tabs for The Wonders - That Thing You Do!

The Wonders - That Thing You Do!

Intro
G|--------------
D|--------------
A|--------------
E|--0--------5--

Verse and Guitar Solo
G|-----------------------------------------------------
D|-----------------------2-----------------------------  2x
A|--------------2--2--4-----------4--------------6-----
E|--0--0--3--4--------------5--5-----5-----7--7-----7--

G|-----------------------------------------------------
D|--------------2--3--4-----4-----4--------------------
A|--4-----4--4-----------4-----4-----------2--0--------
E|-----4-----------------------------2--2--------4--2--

2nd Verse
G|-----------------------------------------------------
D|-----------------------2-----------------------------  2x
A|--------------2--2--4-----------4--------------6-----
E|--0--0--3--4--------------5--5-----5-----7--7-----7--

G|-----------------------------------------------------------------
D|--------------2--3--4-----4-----4--------------------------------
A|--4-----4--4-----------4-----4-----5-----5-----5--2-----2-----2--
E|-----4--------------------------------5-----5--------2-----2-----

Chorus
G|--------------------------------------------------------------------------
D|--------------2--3--4-----------------------------------------------------
A|--4-----4--4-----------4--------------2--------4--7--4--------------2--2--
E|-----4--------------------2-----0--4-----4--5-----------0--0--4--4--------

G|-----------------------------------------------------------------
D|-----------------------------------------------------------------
A|--------4--4--7--7--4--7--------------------------2--2--2--2--2--
E|--5--5--------------------0--0--0--0--0--0--0--0-----------------

Bridge
G|------------------------------------------------------------------------------
D|----------------------------------4---4---4---4-------------------------------
A|--0---0---0---0---4---4---4---4-----4-------4----22222222-33333333-22222222---
E|----0-------0-------4-------4-------------------------------------------------

Ending Chorus
G|-----------------------------------------------------------
D|--------------2--3--4-----4-----4--------------------------
A|--4-----4--4-----------4-----4-----------2--------4--7--4--
E|-----4-----------------------------0--4-----4--5-----------

G|-----------------------------------------------------------------------
D|--------------------------------------------4--------------------------
A|--------------2--2--4--2--------4--4--7--7-----7--------------2--2--4--
E|--0--0--3--4--------------5--5--------------------0--0--3--4-----------

G|--------------------------------------------------------------------------------
D|--------------------------------------------------------------------------------
A|--------4--7--7-----------------2--2--4--2--2--2--2--2-----------------------7--
E|--5--5--------------0--0--3--4--------------------------4--4--4--4--0--3--4-----
tabs and chords, guitar tabs, music transcription, music technology, deep learning, music information retrieval, transcribe into tabs & chords, chordify, music renditions, songsterr, reverbnation, tabulature, bollywood chords, ultimate guitar, yousician, guitar lessons, acoustic guitar, electric guitar, guitar tuner, 911 tabs