Ukulele Tabs for The Wolven Storm (uke)

(/) Slide Up  (\) Slide Down  (h) Hammer On  (p) Pull Off  (b) Bend (r) Release (v) Vibrato (x) Muted

Tabs for Song : 

Song lyrics here
A|---------------------------------------------------------------------------------------------
E|-----2-----2-----2-----2--------0--------------------2-----2-----2-----2--------------------
C|--4--4--4--4--4--4--4--4-----4-----6--7-----------0--0--0--0--0--0--0--0-----0--2--9--6-----
G|--0-----0-----0-----0-----0-----------------------0-----0-----0-----0-----0-----------------

A|--------------------------------------------------2--------5--------------------------------------
E|--7--7-----0--7--5-----0--2--3--2--3-----2-----2-----7-----------5-----7-----5--3--2--3--5-----7--
C|-----4--4-----4--2--2--------0-----0--0--2--2--------4--4-----4-----4-----4--0-----0-----2--------
G|--------------------------------------------------------------------------------------------------

A|--------------------------------------------------------------------------------------
E|-----3--2--3--2-----0--------3--2--3--5-----------2-----2-----2-----2--5-----3--2--0--
C|--0-----------------------0-----------2--------4--4--4--4--4--4--4--4-----------------
G|--0-----------------------0-----------2--------0-----0-----0-----0--------------------

A|--------------------------------------------------------------------------------
E|--0--2--3-----0--2--3--5--7-----0-----0--2--3-----3--2--5-----3--2--3-----------
C|--------4-----------------------------------0-----------------------------2-----
G|--------------------------------------------------------------------------------

A|--------------------------------5--------------------------------------------------------
E|--0--2--3-----0--2--3--5--7-----------5-----7-----5-----2--3--5-----7-----5--3--2--3--2--
C|--------4-----------------4-----------4-----------0-----------0-----------2-----------2--
G|-----------------------------------------------------------------------------------------

A|-----10-9--10-9-----7--------10-9--10-12----10-9--10-9--10-9--10-9--12----10-9--7--
E|--0-----------------------0-----------2--------------------------------------------
C|--0-----------------------0-----------2-----4-----------------------4--------------
G|--0-----------------------0-----------2-----4-----------------------4--------------

A|--------------------------------------------------------------------------------------------
E|--0--2--3-----0-----0--2--3--5--7-----0-----0-----0--2--3-----3--2--5-----3--2--3-----------
C|--------4--4-----4--4--4--4--4--4--4-----4--------------0-----------0-----------0--2--9--6--
G|--------------------------------------------------------------------------------------------

A|--------------------------------------5-----------------------------------------------------------
E|--0--2--3-----0-----0--2--3--5--7-----------5-----7-----5-----2--3--5-----7-----5--3--2--3--2-----
C|--------4--4-----4--4--4--4--4--4--4-----4-----4-----4-----2-----2-----2-----2--3--3--3--3--3-----
G|--------------------------------4-----4-----4-----4-----2-----2--2--2-----2-----------------------

Song lyrics here


Paste any tab in acousterr's tab maker and we'll play it !!!
Now supports capo and sound effects for vibrato/pull-off/hammer/bends/mutes etc !!! Checkout help section
tabs and chords, guitar tabs, music transcription, music technology, deep learning, music information retrieval, transcribe into tabs & chords, chordify, music renditions, songsterr, reverbnation, tabulature, bollywood chords, ultimate guitar, yousician, guitar lessons, acoustic guitar, electric guitar, guitar tuner, 911 tabs