Bass Tabs for The Temptations - My Girl

The Temptations - My Girl

Intro
G|--------------------------------------------------------------------------
D|--------5--------5--------5--------5--------5--------5--------5--------5--
A|--3--3-----3--3-----3--3-----3--3-----3--3-----3--3-----3--3-----3--3-----
E|--------------------------------------------------------------------------

Verse
G|--------x-----------x-----
D|--------x-----------x-----  4x
A|-----3--x--3--------x-----
E|--------x--------1--x--1--

Pre-Chorus
G|--------------------------------------------
D|-----------------------5-----------------5--
A|--3--3--5--5--------------3--3--5-----------
E|--------------1--2--3--------------1--3-----

Chorus
G|-----------------------------------------------
D|-----------------------------------------------
A|--3--3--3--3--5--5-----5--5--------5--5--------
E|-----------------------------------------3--3--

Bridge
G|--------------------------------------------
D|--------5--------5--------5--------5--------
A|--3--3-----3--3-----3--3-----3--3-----3--3--
E|--------------------------------------------

G|--------x-----------x-----
D|--------x-----------x-----  2x
A|-----3--x--3--------x-----
E|--------x--------1--x--1--

G|-----x-----------x-----------x-----------------
D|-----x-----------x-----------x-----------------
A|--5--x--5--------x-----------x-----------------
E|-----x--------3--x--3--1--0--x--0-----5--5--5--

After Bridge Verse
G|-----x-----------x-----
D|-----x-----------x-----  4x
A|--5--x--5--------x-----
E|-----x--------3--x--3--

Pre-Chorus
G|--------------------------------
D|--------------------------------
A|--5--------------5--------------
E|-----0--2--3--5-----0--2--3--5--

Chorus
G|--------------------------------------------------------------------------
D|--------------------------------------------------7--7--5--5--4--4--------  2x
A|--5-----5--5-----5--5-----5--5-----7-----7--7-----------------------7--7--
E|--------------------------------------------------------------------------

tabs and chords, guitar tabs, music transcription, music technology, deep learning, music information retrieval, transcribe into tabs & chords, chordify, music renditions, songsterr, reverbnation, tabulature, bollywood chords, ultimate guitar, yousician, guitar lessons, acoustic guitar, electric guitar, guitar tuner, 911 tabs