Guitar Tabs for The Stage (intro)

(/) Slide Up  (\) Slide Down  (h) Hammer On  (p) Pull Off  (b) Bend (r) Release (v) Vibrato (x) Muted

Tabs for Song : 

Song lyrics here
E|--------7--------7--------7--------7--------7-----
B|--5--7-----5--7-----5--7-----5--7-----5--7-----7--
G|--------------------------------------------------
D|--------------------------------------------------
A|--------------------------------------------------
D|--------------------------------------------------

E|--------8--------8--------8--------8--------8-----
B|--5--7-----5--7-----5--7-----5--7-----5--7-----8--
G|--------------------------------------------------
D|--------------------------------------------------
A|--------------------------------------------------
D|--------------------------------------------------

E|-----5--8-----5--8-----5--8-----5--8-----5--8--5--
B|--5--------5--------5--------5--------5-----------
G|--------------------------------------------------
D|--------------------------------------------------
A|--------------------------------------------------
D|--------------------------------------------------

E|--------8--------8--------8--------8--------8-----
B|--4--7-----4--7-----4--7-----4--7-----4--7-----7--
G|--------------------------------------------------
D|--------------------------------------------------
A|--------------------------------------------------
D|--------------------------------------------------


E|--------7--------7--------7--------7--------7-----
B|--5--7-----5--7-----5--7-----5--7-----5--7-----7--
G|--------------------------------------------------
D|--------------------------------------------------
A|--------------------------------------------------
D|--------------------------------------------------


E|--------8--------8--------8--------8--------8-----
B|--5--7-----5--7-----5--7-----5--7-----5--7-----8--
G|--------------------------------------------------
D|--------------------------------------------------
A|--------------------------------------------------
D|--------------------------------------------------

E|-----5--8-----5--8-----5--8-----5--8-----5--8--5--
B|--5--------5--------5--------5--------5-----------
G|--------------------------------------------------
D|--------------------------------------------------
A|--------------------------------------------------
D|--------------------------------------------------

E|--------8--------8--------7--------7--------------15h19p15----------
B|--4--7-----4--7-----4--7-----4--7--------------17----------17-------
G|--------------------------------------------16----------------16----
D|-----------------------------------------17----------------------17-
A|--------------------------------------19----------------------------
D|--------------------------------------------------------------------


Song lyrics here
E|--
B|--
G|--
D|--
A|--
D|--

Now supports capo and sound effects for vibrato/pull-off/hammer/bends/mutes etc !!! Checkout help section
tabs and chords, guitar tabs, music transcription, music technology, deep learning, music information retrieval, transcribe into tabs & chords, chordify, music renditions, songsterr, reverbnation, tabulature, bollywood chords, ultimate guitar, yousician, guitar lessons, acoustic guitar, electric guitar, guitar tuner, 911 tabs