The Secret - Lacuna Coil - Guitar Tabs

Guitar 2
    
                                                                                                                                                                                                                                                                                                                                                                                                                                                                                                                                                                                                                                                                                                                                                                                                                                                                                                                                                                                                                                                                                                                                                                                              
E|-------------------------|-----------------------|
B|-------------------------|-----------------------|
G|-------------------------|-----------------------|
D|--5--5--5--5--5--5--5--5-|5--5--5--5--5--5--5--5-|
A|--5--5--5--5--5--5--5--5-|5--5--5--5--5--5--5--5-|
E|--3--3--3--3--3--3--3--3-|3--3--3--3--3--3--3--3-|

    
                                                                                                                                                                                                                                                                                                                                                                                                                                                                                                                                                                                                 
E|-------------------------|
B|-------------------------|
G|-------------------------|
D|--3----------------------|
A|--3----------------------|
E|--1----------------------|

    
                                                                                                                                                                                                                                                                                                                                                                                                                                                                                                                                                                                                                                                                                                                                                                                                                                                                                                                                                                                                                                                                                                                                                                                              
E|-------------------------|-----------------------|
B|-------------------------|-----------------------|
G|-------------------------|-----------------------|
D|--5--5--5--5--5--5--5--5-|5--5--5--5--5--5--5--5-|
A|--5--5--5--5--5--5--5--5-|5--5--5--5--5--5--5--5-|
E|--3--3--3--3--3--3--3--3-|3--3--3--3--3--3--3--3-|

    
                                                                                                                                                                                                                                                                                                                                                                                                                                                                                                                                                                                                                                                                                                                                                                                                                                                                                                                                                                                                                                                                                                                                                                                              
E|-------------------------|-----------------------|
B|-------------------------|-----------------------|
G|-------------------------|-----------------------|
D|--7----------------------|10---------------------|
A|--7----------------------|10---------------------|
E|--5----------------------|8----------------------|

    
                                                                                                                                                                                                                                                                                                                                                                                                                                                                                                                                                                                                                                                                                                                                                                                                                                                                                                                                                                                                                                                                                                                                                                                              
E|-------------------------|-----------------------|
B|-------------------------|-----------------------|
G|-------------------------|-----------------------|
D|--3----------------------|5----------------------|
A|--3----------------------|5----------------------|
E|--1----------------------|3----------------------|

    
                                                                                                                                                                                                                                                                                                                                                                                                                                                                                                                                                                                                                                                                                                                                                                                                                                                                                                                                                                                                                                                                                                                                                                                              
E|-------------------------|-----------------------|
B|-------------------------|-----------------------|
G|-------------------------|-----------------------|
D|--7--7--7--7--7--7--7--7-|10-10-10-10-10-10-10-10|
A|--7--7--7--7--7--7--7--7-|10-10-10-10-10-10-10-10|
E|--5--5--5--5--5--5--5--5-|8--8--8--8--8--8--8--8-|

    
                                                                                                                                                                                                                                                                                                                                                                                                                                                                                                                                                                                                                                                                                                                                                                                                                                                                                                                                                                                                                                                                                                                                                                                              
E|-------------------------|-----------------------|
B|-------------------------|-----------------------|
G|-------------------------|-----------------------|
D|--3--3--3--3--3--3--3--3-|5--5--5--5--5--5--5--5-|
A|--3--3--3--3--3--3--3--3-|5--5--5--5--5--5--5--5-|
E|--1--1--1--1--1--1--1--1-|3--3--3--3--3--3--3--3-|

    
                                                                                                                                                                                                                                                                                                                                                                                                                                                                                                                                                                                                                                                                                                                                                                                                                                                                                                                                                                                                                                                                                                                                                                                              
E|-------------------------|-----------------------|
B|-------------------------|-----------------------|
G|-------------------------|-----------------------|
D|--3----------------------|------3----------------|
A|--3----------------------|------3----------------|
E|--1----------------------|------1----------------|

    
                                                                                                                                                                                                                                                                                                                                                                                                                                                                                                                                                                                                                                                                                                                                                                                                                                                                                                                                                                                                                                                                                                                                                                                              
E|-------------------------|-----------------------|
B|-------------------------|-----------------------|
G|-------------------------|-----------------------|
D|--5----------------------|------5----------------|
A|--5----------------------|------5----------------|
E|--3----------------------|------3----------------|

    
                                                                                                                                                                                                                                                                                                                                                                                                                                                                                                                                                                                                                                                                                                                                                                                                                                                                                                                                                                                                                                                                                                                                                                                              
E|-------------------------|-----------------------|
B|-------------------------|-----------------------|
G|-------------------------|-----------------------|
D|--3----------------------|------3----------------|
A|--3----------------------|------3----------------|
E|--1----------------------|------1----------------|

    
                                                                                                                                                                                                                                                                                                                                                                                                                                                                                                                                                                                                 
E|-------------------------|
B|-------------------------|
G|-------------------------|
D|--5--5--5--5--5--5--5--5-|
A|--5--5--5--5--5--5--5--5-|
E|--3--3--3--3--3--3--3--3-|

    
                                                                                                                                                                                                                                                                                                                                                                                                                                                                                                                                                                                                                                                                                                                                                                                                                                                                                                                                                                                                                                                                                                                                                                                              
E|-------------------------|-----------------------|
B|-------------------------|-----------------------|
G|-------------------------|-----------------------|
D|--5--5--5--5--5----------|---3--2----------------|
A|--5--5--5--5--5----------|0--------------3-----5-|
E|--3--3--3--3--3----------|---------1-------------|

    
                                                                                                                                                                                                                                                                                                                                                                                                                                                                                                                                                                                                 
E|-------------------------|
B|-------------------------|
G|-------------------------|
D|-------------------------|
A|-----3--5--3-----2-------|
E|--------------------3----|

    
                                                                                                                                                                                                                                                                                                                                                                                                                                                                                                                                                                                                                                                                                                                                                                                                                                                                                                                                                                                                                                                                                                                                                                                              
E|-------------------------|-----------------------|
B|-------------------------|-----------------------|
G|-------------------------|-----------------------|
D|-----3--2----------------|-----------------------|
A|--0--------------3-----5-|---3--5--3-----2-------|
E|-----------1-------------|------------------3----|

    
                                                                                                                                                                                                                                                                                                                                                                                                                                                                                                                                                                                                 
E|-------------------------------------------------|
B|-------------------------------------------------|
G|--------------------------------0--------0-----0-|
D|--------------------------1--3-----1--3-----3----|
A|-----0--1-----0--1--0--1-------------------------|
E|--3--------3-------------------------------------|

    
                                                                                                                                                                                                                                                                                                                                                                                                                                                                                                                                                                                                 
E|-------------------------------------------------|
B|-------------------------------------------------|
G|-------------------------------------------------|
D|-------------------------------------------------|
A|-----0--1-----0--1--0--1--------0--------0-----0-|
E|--3--------3--------------1--3-----1--3-----3----|

    
                                                                                                                                                                                                                                                                                                                                                                                                                                                                                                                                                                                                                                                                                                                                                                                                                                                                                                                                                                                                                                                                                                                                                                                              
E|-------------------------|-----------------------|
B|-------------------------|-----------------------|
G|-------------------------|-----------------------|
D|--7----------------------|10---------------------|
A|--7----------------------|10---------------------|
E|--5----------------------|8----------------------|

    
                                                                                                                                                                                                                                                                                                                                                                                                                                                                                                                                                                                                                                                                                                                                                                                                                                                                                                                                                                                                                                                                                                                                                                                              
E|-------------------------|-----------------------|
B|-------------------------|-----------------------|
G|-------------------------|-----------------------|
D|--3----------------------|5----------------------|
A|--3----------------------|5----------------------|
E|--1----------------------|3----------------------|

    
                                                                                                                                                                                                                                                                                                                                                                                                                                                                                                                                                                                                                                                                                                                                                                                                                                                                                                                                                                                                                                                                                                                                                                                              
E|-------------------------|-----------------------|
B|-------------------------|-----------------------|
G|-------------------------|-----------------------|
D|--7--7--7--7--7--7--7--7-|10-10-10-10-10-10-10-10|
A|--7--7--7--7--7--7--7--7-|10-10-10-10-10-10-10-10|
E|--5--5--5--5--5--5--5--5-|8--8--8--8--8--8--8--8-|

    
                                                                                                                                                                                                                                                                                                                                                                                                                                                                                                                                                                                                                                                                                                                                                                                                                                                                                                                                                                                                                                                                                                                                                                                              
E|-------------------------|-----------------------|
B|-------------------------|-----------------------|
G|-------------------------|-----------------------|
D|--3--3--3--3--3--3--3--3-|5--5--5--5--5--5--5--5-|
A|--3--3--3--3--3--3--3--3-|5--5--5--5--5--5--5--5-|
E|--1--1--1--1--1--1--1--1-|3--3--3--3--3--3--3--3-|

    
                                                                                                                                                                                                                                                                                                                                                                                                                                                                                                                                                                                                                                                                                                                                                                                                                                                                                                                                                                                                                                                                                                                                                                                              
E|-------------------------|-----------------------|
B|-------------------------|-----------------------|
G|-------------------------|-----------------------|
D|--3----------------------|------3----------------|
A|--3----------------------|------3----------------|
E|--1----------------------|------1----------------|

    
                                                                                                                                                                                                                                                                                                                                                                                                                                                                                                                                                                                                                                                                                                                                                                                                                                                                                                                                                                                                                                                                                                                                                                                              
E|-------------------------|-----------------------|
B|-------------------------|-----------------------|
G|-------------------------|-----------------------|
D|--5----------------------|------5----------------|
A|--5----------------------|------5----------------|
E|--3----------------------|------3----------------|

    
                                                                                                                                                                                                                                                                                                                                                                                                                                                                                                                                                                                                                                                                                                                                                                                                                                                                                                                                                                                                                                                                                                                                                                                              
E|-------------------------|-----------------------|
B|-------------------------|-----------------------|
G|-------------------------|-----------------------|
D|--3----------------------|------3----------------|
A|--3----------------------|------3----------------|
E|--1----------------------|------1----------------|

    
                                                                                                                                                                                                                                                                                                                                                                                                                                                                                                                                                                                                 
E|-------------------------|
B|-------------------------|
G|-------------------------|
D|--5--5--5--5--5--5--5--5-|
A|--5--5--5--5--5--5--5--5-|
E|--3--3--3--3--3--3--3--3-|

    
                                                                                                                                                                                                                                                                                                                                                                                                                                                                                                                                                                                                                                                                                                                                                                                                                                                                                                                                                                                                                                                                                                                                                                                              
E|-------------------------|-----------------------|
B|-------------------------|-----------------------|
G|-------------------------|-----------------------|
D|--5--5--5--5--5----------|---3--2----------------|
A|--5--5--5--5--5----------|0--------------3-----5-|
E|--3--3--3--3--3----------|---------1-------------|

About Manifesto of Lacuna Coil : Manifesto of Lacuna Coil is a compilation album by Italian alternative metal band . Tracks are taken from the first four studio albums; In a Reverie, Unleashed Memories, Comalies & Karmacode . All songs written by Lacuna Coil, except "Enjoy the Silence" written by Martin Gore It had a contribution from notable artists like Lacuna Coil. It had an affiliation to bands - Lacuna Coil,Comalies & Karmacode. Its music is influenced by genres - alternative metal , gothic metal.

tabs and chords, guitar tabs, music transcription, music technology, deep learning, music information retrieval, transcribe into tabs & chords, chordify, music renditions, songsterr, reverbnation, tabulature, bollywood chords, ultimate guitar, yousician, guitar lessons, acoustic guitar, electric guitar, guitar tuner, 911 tabs