Guitar Tabs for The Savage Young Taterbug - Victor The Vapor Rubber

(/) Slide Up  (\) Slide Down  (h) Hammer On  (p) Pull Off  (b) Bend (r) Release (v) Vibrato (x) Muted

Tabs for Song : 
BPM : 91

    Victor   the vapor     Ruu-uuuh- uuub...on her
E|--------------------------------------------------
B|--------------------------------------------------
G|--------------------------------------------------
D|--6--6-----6--6--6--------6--5-----3-----3--3-----
A|--6--6-----6--6--6--------6--5-----3-----3--3-----
E|--4--4-----4--4--4--------4--3-----1-----1--1-----
    Chest is where I do my love             call me
E|--------------------------------------------------
B|--------------------------------------------------
G|--------------------------------------------------
D|--8--8--8--8--10-10-10-6--6--6-----6--6--6-----6--
A|--8--8--8--8--10-10-10-6--6--6-----6--6--6-----6--
E|--6--6--6--6--8--8--8--4--4--4-----4--4--4-----4--
    Victor   the vapor     Ruu-uuuh- uuub...on her
E|--------------------------------------------------
B|--------------------------------------------------
G|--------------------------------------------------
D|--6--6-----6--6--6--------6--5-----3-----3--3-----
A|--6--6-----6--6--6--------6--5-----3-----3--3-----
E|--4--4-----4--4--4--------4--3-----1-----1--1-----
    Chest is where I place my glove
E|--------------------------------------------------
B|--------------------------------------------------
G|--------------------------------------------------
D|--8--8--8--8--10-10-10-6--6--6-----6--6--6-----6--
A|--8--8--8--8--10-10-10-6--6--6-----6--6--6-----6--
E|--6--6--6--6--8--8--8--4--4--4-----4--4--4-----4--

Use manual mode to free up cursor. Paste any tab in acousterr tab maker and we'll play it !!!
tabs and chords, guitar tabs, music transcription, music technology, deep learning, music information retrieval, transcribe into tabs & chords, chordify, music renditions, songsterr, reverbnation, tabulature, bollywood chords, ultimate guitar, yousician, guitar lessons, acoustic guitar, electric guitar, guitar tuner, 911 tabs