Bass Tabs for The Rolling Stones - (i Can't Get No) Satisfaction

The Rolling Stones - (I Can't Get No) Satisfaction

Intro, Chorus & Outro
G|--------------------------------
D|-----------4--5--7--7--7--5--4--
A|--7--7--7-----------------------
E|--------------------------------

Verse
G|--------------------------------------------------------------------------
D|--------------------------7--7--------7--7-----7--------------------------
A|--7--7--------7--7-----7--------7--7--------7-----7--7--------7--7-----7--
E|--------7--7--------7-----------------------------------7--7--------7-----

G|-----------------------------------------------------------------------------
D|--7--7--------7--7-----7-----------------9--9-----9--------------7--7-----7--
A|--------7--7--------7-----7--7--------7--------9-----7--7-----7--------7-----
E|--------------------------------7--7-----------------------7-----------------
tabs and chords, guitar tabs, music transcription, music technology, deep learning, music information retrieval, transcribe into tabs & chords, chordify, music renditions, songsterr, reverbnation, tabulature, bollywood chords, ultimate guitar, yousician, guitar lessons, acoustic guitar, electric guitar, guitar tuner, 911 tabs