Bass Tabs for The Rolling Stones - Brown Sugar

The Rolling Stones - Brown Sugar


G|--------------------------------
D|--5--5--5--5--5-----------------  3x
A|-----------------3--3--3--3--3--
E|--------------------------------


G|-----------------------------------------------
D|-----------------------------------------------
A|--6--6--6--6--6--3--3--3--3--3-----------------
E|--------------------------------4--4--6--6--6--

G|-----------------------------------------------------------
D|-----------------------------------------------------------
A|-----------------6--6--6--6--3--3--3--3--3-----------------
E|--8--8--8--8--8-----------------------------4--4--6--6--6--

Verse
G|-----------------------------------------------------------
D|--3--3--3--0--3--3--3--0--3--3--3--------------------------
A|-----------------------------------3--3--0--3--3--3--0--3--
E|-----------------------------------------------------------

G|--------------------------
D|--------------------------
A|--1--1--1--1--1--3--3--3--
E|--------------------------

Chorus
G|--------------------------------------------------
D|-----------------5--3--0--5--5--3--0--------------
A|-----------2--5-----------------------3--3--3--3--
E|--3--3--3-----------------------------------------
tabs and chords, guitar tabs, music transcription, music technology, deep learning, music information retrieval, transcribe into tabs & chords, chordify, music renditions, songsterr, reverbnation, tabulature, bollywood chords, ultimate guitar, yousician, guitar lessons, acoustic guitar, electric guitar, guitar tuner, 911 tabs