Guitar Tabs for The Red Army Is The Strongest

(/) Slide Up  (\) Slide Down  (h) Hammer On  (p) Pull Off  (b) Bend (r) Release (v) Vibrato (x) Muted

Tabs for Song : 
BPM : 114

Song lyrics here
E|--------------------------------------------------------------------------------------------------
B|--------------------------------------------------1-----------1--------1--1-----------0-----------
G|--2-----------------------------------------------------------------------------------------2-----
D|--------------------------------------------------2-----------2--------2--2-----------0-----------
A|--0-----------0-----------0-----------0-----------0-----------0-----------0-----------------3-----
E|--------------------------------------------------------------------------------------------------

E|--------------------------------------------------------------------------------------------------
B|--------------------0-----------------------------------------------------------------------0-----
G|--1-----------2-----------2-----------------------2-----------0-----------------------2-----------
D|--------------------0-----------------------------0-----------0-----3-----2-----0-----------2-----
A|--2-----------3-----------0-----------0-----------------------------------3-----------3-----------
E|--0-----------0-----------------------------------------------------------0-----------0-----------

E|--------------------------------------------------------------------------------------------------
B|--1-----------0-----------------------------------1-----------1--------1--1-----------0-----------
G|--------------------------2-----------------------------------------------------------------2-----
D|--2-----------0-----------2-----------2--------2--2-----------2--------2--2-----------0-----------
A|--------------------------0-----------0-----------0-----------0-----------0-----------------3-----
E|--0-----------0-----------0-----------------------------------------------------------------------

E|--------------------------------------------------------------------------------------------------
B|--------------------0-----------------------------------------------------------------------0-----
G|--1-----------2-----------2-----------------------2-----------0-----------------------2-----------
D|--------------------0-----------------------------0-----------0-----3-----2-----0-----------2-----
A|--2-----------3-----------0-----------0-----------------------------------3-----------3-----------
E|--0-----------0-----------------------------------------------------------0-----------0-----------

E|--------------------------------------------------------------------------------------------------
B|--1-----------0-----------------------------------0--------0--0-----------------0-----------0-----
G|--------------------------2-----2-----1-----2-----1--------1--------1-----------------2-----------
D|--2-----------0-----------2-----------------------2--------2--2-----------2-----------------------
A|--------------------------0-----------------------------2-----------2-----------2-----------2-----
E|--0-----------0-----------0-----------------------0-----------0-----------0-----------0-----------

E|--------------------------------------------------------------------------3-----------1-----------
B|--1-----------1-----------------1-----0-----1-----3-----------------------0-----------3-----------
G|--2-----------2-----------2-----------------------0-----------0-----------0-----------0-----------
D|--------2-----------2-----2-----2-----------2-----------0-----0-----0-----------0-----------0-----
A|--0-----------0-----------0-----------0-----------------------------------------------------------
E|--------------------------------------------------3-----------3-----------3-----------3-----------

E|--0-----------------------------0-----------0-----1-----------------------------------------------
B|--1-----------------------------------3-----------------------0-----------------0-----1-----3-----
G|--0-----------------------------------------------2-----------0-----------------------------------
D|--2-----------------------------------------------0-----------0-----2-----3-----------0-----------
A|--3-----------------------3-----------------------------0-----------0-----------0-----------0-----
E|--3-----------0-----3-----------------------------------------------------------------------------

E|--0-----------------------------------------------0-----------------------------------------------
B|--1-----------------------------1-----0-----------0-----------3-----------1-----------0-----------
G|--------------2-----------------------------2-----1-----------------------------------0-----------
D|--------2-----2-----0-----2-----2-----------2-----------------2-----------4-----------------------
A|--0-----------3-----2-----0-----------0-----------------2-----------2-----------2-----------2-----
E|--------------------------------------------------0-----------0-----------0-----------0-----------

E|--------------------------------------------------------------------------------------------------
B|--------------------------------------------------0--------0--0-----------------0-----------0-----
G|--2-----------------------------2-----1-----2-----1--------1--------1-----------------2-----------
D|--2-----------------------------------------------2--------2--2-----------2-----------------------
A|--0-----------0--------0--0-----------------------------2-----------2-----------2-----------2-----
E|--------------------------------------------------0-----------0-----------0-----------0-----------

E|--------------------------------------------------------------------------3-----------1-----------
B|--1-----------1-----------------1-----0-----1-----3-----------------------0-----------3-----------
G|--2-----------2-----------2-----------------------0-----------0-----------0-----------0-----------
D|--------2-----------2-----2-----2-----------2-----------0-----0-----0-----------0-----------0-----
A|--0-----------0-----------0-----------0-----------------------------------------------------------
E|--------------------------------------------------3-----------3-----------3-----------3-----------

E|--0-----------------------------0-----------0-----1-----------------------------------------------
B|--1-----------------------------------3-----------------------0-----------------0-----1-----3-----
G|--0-----------------------------------------------2-----------0-----------------------------------
D|--2-----------------------------------------------0-----------0-----2-----3-----------0-----------
A|--3-----------------------3-----------------------------0-----------0-----------0-----------0-----
E|--3-----------0-----3-----------------------------------------------------------------------------

E|--0-----------------------------------------------0-----------0-----------2-----------4-----------
B|--1-----------------------------1-----0-----------0-----------0-----------0-----------3-----------
G|--------------2-----------------------------2-----1-----------1-----------------------------------
D|--------2-----2-----0-----2-----2-----------2-----------------------------------------------------
A|--0-----------3-----2-----0-----------0-----------------2-----------2-----------2-----------2-----
E|--------------------------------------------------0-----------0-----------0-----------0-----------

E|--5-----------------------------------------------
B|--5-----------------------------------------------
G|--5-----------------------------------------------
D|--7-----------------------------------------------
A|--7-----------------------------------------------
E|--5-----------------------------------------------

Paste any tab in acousterr's tab maker and we'll play it !!!
Now supports capo and sound effects for vibrato/pull-off/hammer/bends/mutes etc !!! Checkout help section
tabs and chords, guitar tabs, music transcription, music technology, deep learning, music information retrieval, transcribe into tabs & chords, chordify, music renditions, songsterr, reverbnation, tabulature, bollywood chords, ultimate guitar, yousician, guitar lessons, acoustic guitar, electric guitar, guitar tuner, 911 tabs