The Mans Too Strong - Dire Straits - Guitar Tabs

Guitar 1
    
                                                                                                                                                                                                                                                                                                                                                                                                                                                                                                                                                                                                                                                                                                                                                                                                                                                                                                                                                                                                                                                                                                                                                                                              
E|-------------------------|--------------------------------|
B|-------------------------|------3--3-----3----------------|
G|-------------------------|-0p2--2--2--2--2---2p0--------2-|
D|--------------0--3-------|------0--0-----0--------3--0----|
A|-------------------------|--------------------------------|
E|-------------------------|--------------------------------|

    
                                                                                                                                                                                                                                                                                                                                                                                                                                                                                                                                                                                                                                                                                                                                                                                                                                                                                                                                                                                                                                                                                                                                                                                              
E|-----0--0--0-----------0--0-------|--------------------------------|
B|-----1--1--1-----------1--1-------|---------3--3--3--3--3----------|
G|--0--0--0--0-----------0--0-------|0-----0--0--0--0--0--0----------|
D|-----2--2--2--0--2--------------2-|------0--0--0--0--0--0---3p0----|
A|-----3--3--3--3--3--3--------3----|---1--------------------------3-|
E|----------------------------------|--------------------------------|

    
                                                                                                                                                                                                                                                                                                                                                                                                                                                                                                                                                                                                                                                                                                                                                                                                                                                                                                                                                                                                                                                                                                                                                                                              
E|-----2--2--2--2----------------------|--------------------------------|
B|-----3--3--3--3--------3--3--------3-|------3--3--3--3--3--3----------|
G|-----2--2--2--2--------2--2--------2-|-0p2--2--2--2--2--2--0--------0-|
D|--0-----------------0--0--0---0p3----|------0--0--0--0--0--0--3--0--0-|
A|-----------------3-------------------|--------------------------------|
E|-------------------------------------|--------------------------------|

    
                                                                                                                                                                                                                                                                                                                                                                                                                                                                                                                                                                                                                                                                                                                                                                                                                                                                                                                                                                                                                                                                                                                                                                                              
E|-----0--0-----------0--0--0--0--0-|--------------------------|
B|-----1--1-----------1--1--1--1--1-|---------3-----3----------|
G|--0--0--0--0--0-----0--0--0--0--0-|------0--0--0--0----------|
D|-----------0--2-------------------|---0--------0--0---3p0----|
A|-----------3--3--3----------------|1-----------------------3-|
E|----------------------------------|--------------------------|

    
                                                                                                                                                                                                                                                                                                                                                                                                                                                                                                                                                                                                                                                                                                                                                                                                                                                                                                                                                                                                                                                                                                                                                                                              
E|-------------------------------|-----------------------------|
B|-----3--3--3--------3--3--3--3-|3--3-----3--3--3--3-----3--3-|
G|-----2--2--2--------2--2--2--2-|2--2-----2--2--2--2-----2--2-|
D|--0--0-----------0--0--0--0--0-|0--0-----0--0--0--0-----0--0-|
A|-----0--------3-----0--0--0--0-|0--0-----0--0--0--0-----0--0-|
E|-------------------------------|-----------------------------|

    
                                                                                                                                                                                                                                                                                                                                                                                                                                                                                                                                                                                                                                                                                                                                                                                                                                                                                                                                                                                                                                                                                                                                                                                              
E|--0--0-----0--0--0--0-----0--0-|--------------------------|
B|--1--1-----1--1--1--1-----1--1-|------3--3--3--3--3--3----|
G|--0--0-----0--0--0--0-----0--0-|------0--0--0--0--0--0----|
D|--2--2-----2--2--2--2-----2--2-|---0-----0--0--0--0--0--3-|
A|--3--3-----3--3--3--3-----3--3-|1-----------1--1--1--1----|
E|-------------------------------|--------------------------|

    
                                                                                                                                                                                                                                                                                                                                                                                                                                                                                                                                                                                                                                                                                                                                                                                                                                                                                                                                                                                                                                                                                                                                                                                              
E|----------------------------------|------2--2--2-------------------|
B|-----3--3--3--------3--3--------3-|------3--3--3-----3--3--3--3--3-|
G|-----2--2--2--------2--2--------2-|-0p2--2--2--2-----2--2--2--2--2-|
D|--0--0--0--0-----0---------0p3----|------0--0--0--0----------------|
A|-----0--------3-------------------|--------------------------------|
E|----------------------------------|--------------------------------|

    
                                                                                                                                                                                                                                                                                                                                                                                                                                                                                                                                                                                                                                                                                                                                                                                                                                                                                                                                                                                                                                                                                                                                                                                              
E|-----0-----0--0--0-----0--0--0--0-|-----------------------------|
B|-----1-----1--1--1-----1--1--1--1-|---------3--3--3--3--3--3--3-|
G|-----0-----0--0--0-----0--0--0--0-|------0--0--0--0--0--0--0--0-|
D|--2--2-----2--2--2-----2--2--2--2-|---0-----0--0--0--0--0--0--0-|
A|--3-----------------3--3--3--3--3-|1--------1--1--1--1--1--1--1-|
E|----------------------------------|-----------------------------|

    
                                                                                                                                                                                                                                                                                                                                                                                                                                                                                                                                                                                                                                                                                                                                                                                                                                                                                                                                                                                                                                                                                                                                                                                              
E|----------------------------------------|--------------------------------------|
B|--3--3--3--3--3--3--3--3--3--3--3--3----|3--3--3--3--3--3--3--3--3--3--3--3----|
G|--2--2--2--2--2--2--2--2--2--2--2--2----|2--2--2--2--2--2--2--2--2--2--2--2----|
D|--0--0--0--0--0--0--0--0--0--0--0--0----|0--0--0--0--0--0--0--0--0--0--0--0--3-|
A|--------------------------------------3-|--------------------------------------|
E|----------------------------------------|--------------------------------------|

    
                                                                                                                                                                                                                                                                                                                                                                                                                                                                                                                                                                                                                                                                                                                                                                                                                                                                                                                                                                                                                                                                                                                                                                                              
E|-------------------------------|-----------------------------------|
B|-----3-----3--3--3--3----------|---3--3--3-----3--3--3--3--3--3--3-|
G|-----2-----2--2--2--2---2p0----|---2--2--2-----2--2--2--2--2--2--2-|
D|--0--0-----0--0--0--0--------3-|0--0--0--0-----0--0--0--0--0--0--0-|
A|-----0-----0--0--0--0----------|-----------------------------------|
E|-------------------------------|-----------------------------------|

    
                                                                                                                                                                                                                                                                                                                                                                                                                                                                                                                                                                                                                                                                                                                                                                                                                                                                                                                                                                                                                                                                                                                                                                                              
E|--3--3--3--3--3--3--3--3--3--3--3--3-|--------------------------|
B|--3--3--3--3--3--3--3--3--3--3--3--3-|---3--3-------------------|
G|--0--0--0--0--0--0--0--0--0--0--0--0-|---2--2------0p2-----0----|
D|--0--0--0--0--0--0--0--0--0--0--0--0-|0--4--4-------------------|
A|-------------------------------------|--------------------------|
E|--3--3--3--3--3--3--3--3--3--3--0--3-|--------------------------|

    
                                                                                                                                                                                                                                                                                                                                                                                                                                                                                                                                                                                                                                                                                                                                                                                                                                                                                                                                                                                                                                                                                                                                                                                              
E|-------------------------|------------------2--2--2--2-|
B|--------0--0--0----------|---3-----3--3--3--3--3--3--3-|
G|-------------------------|---2-----2--2--2--2--2--2--2-|
D|-------------------------|0--0-----0--0--0--0--0--0--0-|
A|-------------------------|---------------0-------------|
E|-------------------------|-----------------------------|

    
                                                                                                                                                                                                                                                                                                                                                                                                                                                                                                                                                                                                                                                                                                                                                                                                                                                                                                                                                                                                                                                                                                                                                                                              
E|--3--3--3--3--3--3--3--3--3--3--3--3-|-----------------------------------|
B|--3--3--3--3--3--3--3--3--3--3--3--3-|3--3--3--3--3--3--3--3--3--3--3--3-|
G|--0--0--0--0--0--0--0--0--0--0--0--0-|2--2--2--2--2--2--2--2--2--2--2--2-|
D|--0--0--0--0--0--0--0--0--0--0--0--0-|0--0--0--0--0--0--0--0--0--0--0--0-|
A|-------------------------------------|-----------------------------------|
E|--3--3--3--3--3--3--3--3--3--3--3--3-|-----------------------------------|

    
                                                                                                                                                                                                                                                                                                                                                                                                                                                                                                                                                                                                                                                                                                                                                                                                                                                                                                                                                                                                                                                                                                                                                                                              
E|-----------------0--0--0--0----|---0--0--0--0--0-----0--0--0----|
B|-----3-----3--3--1--1--1--1----|---1--1--1--1--1-----1--1--1----|
G|-----2-----2--2--0--0--0--0----|---2--2--2--2--2-----2--2--2--0-|
D|-----0-----0--0--2--2--2--2----|---2--2--2--2--2--2--2--2--2----|
A|--0--0-----0--0--3--3--3--3--2-|0--0--0--0--0--0-----0--0--0----|
E|-------------------------------|--------------------------------|

    
                                                                                                                                                                                                                                                                                                                                                                                                                                                                                                                                                                                                                                                                                                                                                                                                                                                                                                                                                                                                                                                                                                                                                                                              
E|-------------------------------------|1--1--1--1--1--1--1--1--1--1--1--1-|
B|--3--3--3--3--3--3--3--3--3--3--3--3-|3--3--3--3--3--3--3--3--3--3--3--3-|
G|--2--2--2--2--2--2--2--2--2--2--2--2-|2--2--2--2--2--2--2--2--2--2--2--2-|
D|--0--0--0--0--0--0--0--0--0--0--0--0-|-----------------------------------|
A|-------------------------------------|-----------------------------------|
E|-------------------------------------|-----------------------------------|

    
                                                                                                                                                                                                                                                                                                                                                                                                                                                                                                                                                                                                                                                                                                                                                                                                                                                                                                                                                                                                                                                                                                                                                                                              
E|--0--0--0--0--0--0-------------|0--0--0--0--0--0--0--0--0--0--0--0-|
B|--1--1--1--1--1--1-------------|0--0--0--0--0--0--0--0--0--0--0--0-|
G|--0--0--0--0--0--0-------------|0--0--0--0--0--0--0--0--0--0--0--0-|
D|--2--2--2--2--2--2-------------|2--2--2--2--2--2--2--2--2--2--2--2-|
A|--3--3--3--3--3--3-------------|-----------------------------------|
E|-------------------------------|-----------------------------------|

    
                                                                                                                                                                                                                                                                                                                                                                                                                                                                                                                                                                                                                                                                                                                                                                                                                                                                                                                                                                                                                                                                                                                                                                                              
E|--0--0--0--0--0--0--0--0--0--0--0--0-|0--0--0--0--0--0--2--2--2-----2--2--2-|
B|--0--0--0--0--0--0--0--0--0--0--0--0-|0--0--0--0--0--0--3--3--3-----3--3--3-|
G|--0--0--0--0--0--0--0--0--0--0--0--0-|0--0--0--0--0--0--2--2--2-----2--2--2-|
D|--2--2--2--2--2--2--2--2--2--2--2--2-|2--2--2--2--2--2--0--0--0-----0--0--0-|
A|-------------------------------------|--------------------------------------|
E|-------------------------------------|--------------------------------------|

    
                                                                                                                                                                                                                                                                                                                                                                                                                                                                                                                                                                                                                                                                                                                                                                                                                                                                                                                                                                                                                                                                                                                                                                                              
E|--0--0--0--0--0--0--0--0--0--0--0-|0--0--------2--2--2-----2--2--2-|
B|--1--1--1--1--1--1--1--1--1--1--1-|1--1--------3--3--3-----3--3--3-|
G|--0--0--0--0--0--0--0--0--0--0--0-|0--0--------2--2--2-----2--2--2-|
D|--2--2--2--2--2--2--2--2--2--2--2-|2--2--------0--0--0-----0--0--0-|
A|--3--3--3--3--3--3--3--3--3--3--3-|3--3--0--0----------------------|
E|----------------------------------|--------------------------------|

    
                                                                                                                                                                                                                                                                                                                                                                                                                                                                                                                                                                                                                                                                                                                                                                                                                                                                                                                                                                                                                                                                                                                                                                                              
E|--0--0--0--0-----0--0--0--0--0--0-|0--0--0--0--0--------3--3--3-----3--3----|
B|--1--1--1--1-----1--1--1--1--1--1-|1--1--1--1--1--------4--4--4-----4--4--3-|
G|--0--0--0--0-----0--0--0--0--0--0-|0--0--0--0--0--------5--5--5-----5--5--5-|
D|--2--2--2--2-----2--2--2--2--2--2-|2--2--2--2--2--0--0--5--5--5-----5--5--5-|
A|--3--3--3--3-----3--3--3--3--3--3-|3--3--3--3--3--------3--3--3-----3--3--3-|
E|----------------------------------|-----------------------------------------|

    
                                                                                                                                                                                                                                                                                                                                                                                                                                                                                                                                                                                                                                                                                                                                                                                                                                                                                                                                                                                                                                                                                                                                                                                              
E|--3--3--3--3--3--3--3--3--3--3--3--3--3-|3--3--3--3--3--3--3--3--3--3--3--3--3-|
B|--3--3--3--3--3--3--3--3--3--3--3--3--3-|3--3--3--3--3--3--3--3--3--3--3--3--3-|
G|--4--4--4--4--4--4--4--4--4--4--4--4--4-|4--4--4--4--4--4--4--3--3--3--3--3--3-|
D|--5--5--5--5--5--5--5--5--5--5--5--5--5-|5--5--5--5--5--5--5--5--5--5--5--5--5-|
A|--5--5--5--5--5--5--5--5--5--5--5--5--5-|5--5--5--5--5--5--5--5--5--5--5--5--5-|
E|--3--3--3--3--3--3--3--3--3--3--3--3--3-|3--3--3--3--3--3--3--3--3--3--3--3--3-|

    
                                                                                                                                                                                                                                                                                                                                                                                                                                                                                                                                                                                                                                                                                                                                                                                                                                                                                                                                                                                                                                                                                                                                                                                              
E|-----3--3--3--3--3-----3--3--3--0--0-|2--2--2--2--2--2--2--3--3--3--3--3-|
B|-----3--3--3--3--3-----3--3--3-------|3--3--3--3--3--3--3--3--3--3--3--3-|
G|-----3--3--3--3--3-----3--3--3-------|2--2--2--2--2--2--2--2--2--2--2--2-|
D|-----5--5--5--5--5-----5--5--5-------|0--0--0--0--0--0--0--0--0--0--0--0-|
A|-----5--5--5--5--5-----5--5--5-------|-----------------------------------|
E|--3--3--3--3--3--3--3--3--3--3-------|-----------------------------------|

    
                                                                                                                                                                                                                                                                                                                                                                                                                                                                                                                                                                                                                                                                                                                                                                                                                                                                                                                                                                                                                                                                                                                                                                                              
E|--2--2--3--3--3--3--2--2--2--2--2--2-|3--3--3--3--3--3--3--3--3--3--3--3-|
B|--3--3--3--3--3--3--3--3--3--3--3--3-|3--3--3--3--3--3--3--3--3--3--3--3-|
G|--2--2--2--2--2--2--2--2--2--2--2--2-|0--0--0--0--0--0--0--0--0--0--0--0-|
D|--0--0--0--0--0--0--0--0--0--0--0--0-|0--0--0--0--0--0--0--0--0--0--0--0-|
A|-------------------------------------|-----------------------------------|
E|-------------------------------------|3--3--3--3--3--3--3--3--3--3--3--3-|

    
                                                                                                                                                                                                                                                                                                                                                                                                                                                                                                                                                                                                                                                                                                                                                                                                                                                                                                                                                                                                                                                                                                                                                                                              
E|-------------------------------------|3--3--3--3--3--3--3--3--3--3--3--3-|
B|--3--3--3--3--3--3-----3--3--3--3--3-|3--3--3--3--3--3--3--3--3--3--3--3-|
G|--2--2--2--2--2--2-----2--2--2--2--2-|0--0--0--0--0--0--0--0--0--0--0--0-|
D|--0--0--0--0--0--0--0--0--0--0--0--0-|0--0--0--0--0--0--0--0--0--0--0--0-|
A|-------------------------------------|-----------------------------------|
E|-------------------------------------|3--3--3--3--3--3--3--3--3--3--3--3-|

    
                                                                                                                                                                                                                                                                                                                                                                                                                                                                                                                                                                                                                                                                                                                                                                                                                                                                                                                                                                                                                                                                                                                                                                                              
E|-------------------------------------|3--3--3--3--3--3--3--3--3--3--3--3-|
B|--3--3--3--3--3--3-----3--3--3--3--3-|3--3--3--3--3--3--3--3--3--3--3--3-|
G|--2--2--2--2--2--2-----2--2--2--2--2-|0--0--0--0--0--0--0--0--0--0--0--0-|
D|--0--0--0--0--0--0--0--0--0--0--0--0-|0--0--0--0--0--0--0--0--0--0--0--0-|
A|-------------------------------------|-----------------------------------|
E|-------------------------------------|3--3--3--3--3--3--3--3--3--3--3--3-|

    
                                                                                                                                                                                                                                                                                                                                                                                                                                                                                                                                                                                                                                                                                                                                                                                                                                                                                                                                                                                                                                                                                                                                                                                              
E|-------------------------------------|------------0--0--0--0--0--0-------|
B|--3--3--3--3--3--3--3--3--3--3--3--3-|3--3--3--3--3--3--1--1--1--1-------|
G|--2--2--2--2--2--2--2--2--2--2--2--2-|2--2--2--2--2--2--0--0--0--0--0--0-|
D|--0--0--0--0--0--0--0--0--0--0--0--0-|0--0--0--0--0--0--2--2--2--2--0--0-|
A|-------------------------------------|------------------3--3--------2--2-|
E|-------------------------------------|-----------------------------------|

    
                                                                                                                                                                                                                                                                                                                                                                                                                                                                                                                                                                                                                                                                                                                                                                                                                                                                                                                                                                                                                                                                                                                                                                                              
E|-----0--0--0--0--0--0--0--0--0--0--0-|-----------------------------------|
B|-----1--1--1--1--1--1--1--1--1--1--1-|3--3--3--3--3--3--3--3--3--3--3--3-|
G|-----2--2--2--2--2--2--2--2--2--2--2-|2--2--2--2--2--2--2--2--2--2--2--2-|
D|-----2--2--2--2--2--2--2--2--2--2--2-|0--0--0--0--0--0--0--0--0--0--0--0-|
A|--0--0--0--0--0--0--0--0--0--0--0--0-|-----------------------------------|
E|-------------------------------------|-----------------------------------|

    
                                                                                                                                                                                                                                                                                                                                                                                                                                                                                                                                                                                                                                                                                                                                                                                                                                                                                                                                                                                                                                                                                                                                                                                              
E|--1--1--1--1--1--1--1--1--1--1--1--1-|0--0--0--0--0--0-------------|
B|--3--3--3--3--3--3--3--3--3--3--3--3-|1--1--1--1--1--1-------------|
G|--2--2--2--2--2--2--2--2--2--2--2--2-|0--0--0--0--0--0-------------|
D|-------------------------------------|2--2--2--2--2--2-------------|
A|-------------------------------------|3--3--3--3--3--3-------------|
E|-------------------------------------|-----------------------------|

    
                                                                                                                                                                                                                                                                                                                                                                                                                                                                                                                                                                                                                                                                                                                                                                                                                                                                                                                                                                                                                                                                                                                                                                                              
E|--0--0--0--0--0--0--0--0--0--0--0--0-|0--0--0--0--0--0--0--0--0--0--0--0-|
B|--0--0--0--0--0--0--0--0--0--0--0--0-|0--0--0--0--0--0--0--0--0--0--0--0-|
G|--0--0--0--0--0--0--0--0--0--0--0--0-|0--0--0--0--0--0--0--0--0--0--0--0-|
D|--2--2--2--2--2--2--2--2--2--2--2--2-|2--2--2--2--2--2--2--2--2--2--2--2-|
A|-------------------------------------|-----------------------------------|
E|-------------------------------------|-----------------------------------|

    
                                                                                                                                                                                                                                                                                                                                                                                                                                                                                                                                                                                                                                                                                                                                                                                                                                                                                                                                                                                                                                                                                                                                                                                              
E|--0--0--0--0--0--0--2--2--2-----2--2--2-|0--0--0--0--0--0--0--0--0--0--0-|
B|--0--0--0--0--0--0--3--3--3-----3--3--3-|1--1--1--1--1--1--1--1--1--1--1-|
G|--0--0--0--0--0--0--2--2--2-----2--2--2-|0--0--0--0--0--0--0--0--0--0--0-|
D|--2--2--2--2--2--2--0--0--0-----0--0--0-|2--2--2--2--2--2--2--2--2--2--2-|
A|----------------------------------------|3--3--3--3--3--3--3--3--3--3--3-|
E|----------------------------------------|--------------------------------|

    
                                                                                                                                                                                                                                                                                                                                                                                                                                                                                                                                                                                                                                                                                                                                                                                                                                                                                                                                                                                                                                                                                                                                                                                              
E|--0--0--------2--2--2-----2--2--2-|0--0--0--0-----0--0--0--0--0--0-|
B|--1--1--------3--3--3-----3--3--3-|1--1--1--1-----1--1--1--1--1--1-|
G|--0--0--------2--2--2-----2--2--2-|0--0--0--0-----0--0--0--0--0--0-|
D|--2--2--------0--0--0-----0--0--0-|2--2--2--2-----2--2--2--2--2--2-|
A|--3--3--0--0----------------------|3--3--3--3-----3--3--3--3--3--3-|
E|----------------------------------|--------------------------------|

About Brothers in Arms (album) : Brother Brothers in Arms is the fifth studio album by Dire Straits . Released on 13 May 1985 by Vertigo Records internationally and by Warner Bros. Q magazine placed the album at number 51 in its list of the 100 Greatest British Albums Ever . The album won a Grammy Award in 1986 for Best Engineered Album, Non-Classical, and also won Best British Album at the 1987 Brit Awards . Brothers in Arms recorded from October 1984 to February 1985 at AIR Studios on the island of Montserrat, British overseas territory in the Caribbean . The album was produced by songwriter Mark Knopfler and Neil Dorfsman . It had an affiliation to bands - Brothers in Arms,Dire Straits. Its music is influenced by genres - pop rock.

tabs and chords, guitar tabs, music transcription, music technology, deep learning, music information retrieval, transcribe into tabs & chords, chordify, music renditions, songsterr, reverbnation, tabulature, bollywood chords, ultimate guitar, yousician, guitar lessons, acoustic guitar, electric guitar, guitar tuner, 911 tabs