Guitar Tabs for The Jeweller's Hands (jamie Cook)

(/) Slide Up  (\) Slide Down  (h) Hammer On  (p) Pull Off  (b) Bend (r) Release (v) Vibrato (x) Muted

Tabs for Song : The Jeweller's Hands
BPM : 96

Intro (Tremolo picking)
E|--------------
B|--13----15-13-
G|--------------
D|--------------
A|--------------
E|--------------

0:44 "You think excitement has receded..." (Normal Picking)
E|--------------
B|--13----15-13-
G|--------------
D|--------------
A|--------------
E|--------------

1:04 "And now it's no ones fault but yours..."

Figura 1
E|--4-----3-----3-----3-----
B|--4-----4-----3-----4-----
G|--5-----5-----4-----5-----
D|--------------------------
A|--------------------------
E|--------------------------
Figura 2
E|--4-----3-----3-----3-----
B|--4-----3-----3-----4-----
G|--5-----4-----4-----5-----
D|--------------------------
A|--------------------------
E|--------------------------

Forma 1

Forma 3
E|--4-----3--3-----
B|--4-----3--3-----
G|--5-----4--4-----
D|-----------------
A|-----------------
E|-----------------

1:39 "All drowned..." (Tremolo Picking)
E|--------------
B|--13----15-13-
G|--------------
D|--------------
A|--------------
E|--------------
2:08 "The inevitables gather..." (Tremolo Picking)
E|--------------------------------------------------------22-19-
B|--13----15-13-------8-----9-----------13----20-18-20----------
G|-----------------------------10-------------------------------
D|--------------------------------------------------------------
A|--------------------------------------------------------------
E|--------------------------------------------------------------

Forma 1
Forma 2
Forma 1

2:57"That procession ff pioneers..." Forma 4
E|--4-----3-----------3--
B|--4-----3-----------3--
G|--5-----4-----------4--
D|-----------------------
A|-----------------------
E|-----------------------

3:22 Respuesta al Riff de Alex
E|--------------------------------------------------------------------------------------------------------
B|--------------------------------------------------------------------------------------------------------
G|--------------------------------------------------------------------------------------------------------
D|--------------------------------------------------------------------------------------------------------
A|---3\-6/3------3\6-----5---6\11----10-11\14----14\15/14/10-----9\10/9-----------------------------------
E|-----------------------------------------------------------------------10----10\11/10/8------7\-8/-7/3--

3:33 "If you have lesson to teach me..."
E|--------------------------------------------------------------
B|--------8-----11-8------8/6--------------8--------------8-----
G|-----8--------------------------------8-----7--------8-----10-
D|--10----------------10-------------10-------------10----------
A|--------------------------------------------------------------
E|--------------------------------------------------------------

4:33 "If you have lesson to teach me..." (Tremolo Picking)
E|-----------------------------------------------22-20-
B|--13----15-13----8-----9--------13----20-18-20-------
G|--------------------------10-------------------------
D|-----------------------------------------------------
A|-----------------------------------------------------
E|-----------------------------------------------------



tabs and chords, guitar tabs, music transcription, music technology, deep learning, music information retrieval, transcribe into tabs & chords, chordify, music renditions, songsterr, reverbnation, tabulature, bollywood chords, ultimate guitar, yousician, guitar lessons, acoustic guitar, electric guitar, guitar tuner, 911 tabs