Guitar Tabs for The I Hate You Song Lead Guitar

(/) Slide Up  (\) Slide Down  (h) Hammer On  (p) Pull Off  (b) Bend (r) Release (v) Vibrato (x) Muted

Heavy Distortion Throughout

Intro:
E|-----------------------------------------
B|-----------------------------------------
G|-----------------------------------------
D|--5--5-----5--5-----5--5-----5--5--5--5--
A|--5--5-----5--5-----5--5-----5--5--5--5--
E|--3--3-----3--3-----3--3-----3--3--3--3--

Verse 1: 
Oh won't you listen won't you listen to me,
Tell me tell me have you ever even heard of,
Compromoise or trying to make this work,
E|-----------------------------------------------------------------------
B|-----------------------------------------------------------------------
G|--------------------9--9-----9--9-----5--5-----5--5-----7--7-----7--7--
D|--5--5-----5--5-----9--9-----9--9-----5--5-----5--5-----7--7-----7--7--
A|--5--5-----5--5-----7--7-----7--7-----3--3-----3--3-----5--5-----5--5--
E|--3--3-----3--3--------------------------------------------------------
And I would love to sit here and,
Let you talk your little talk to me,
But I will not give you the satisfaction,
E|--------------------------------------------------------------------------------------
B|--------------------------------------------------------------------------------------
G|--------------------9--9-----9--9-----5--5-----5--5-----8--8--8--8--8--8--8--8--8--8--
D|--5--5-----5--5-----9--9-----9--9-----5--5-----5--5-----8--8--8--8--8--8--8--8--8--8--
A|--5--5-----5--5-----7--7-----7--7-----3--3-----3--3-----6--6--6--6--6--6--6--6--6--6--
E|--3--3-----3--3-----------------------------------------------------------------------

Verse 2:
And I know everyone else will agree,
You're almost as pathetic as me,
But not quite as modest I guess,
E|-----------------------------------------------------------------------
B|-----------------------------------------------------------------------
G|--------------------9--9-----9--9-----5--5-----5--5-----7--7-----7--7--
D|--5--5-----5--5-----9--9-----9--9-----5--5-----5--5-----7--7-----7--7--
A|--5--5-----5--5-----7--7-----7--7-----3--3-----3--3-----5--5-----5--5--
E|--3--3-----3--3--------------------------------------------------------
Oh I see I see I see I see right through you,
You're just like a brand new,
Pane of glass ready to shatter,
E|--------------------------------------------------------------------------------------
B|--------------------------------------------------------------------------------------
G|--------------------9--9-----9--9-----5--5-----5--5-----8--8--8--8--8--8--8--8--8--8--
D|--5--5-----5--5-----9--9-----9--9-----5--5-----5--5-----8--8--8--8--8--8--8--8--8--8--
A|--5--5-----5--5-----7--7-----7--7-----3--3-----3--3-----6--6--6--6--6--6--6--6--6--6--
E|--3--3-----3--3-----------------------------------------------------------------------

Chorus:
Talk about what you want to,
Just don't talk to me,
E|--------------------------------------------------------------------------
B|--------------------------------------------------------------------------
G|--------------------5--5--5--8--8--8--------------------9--9--9--5--5--5--
D|--5--5--5--5--5--5--5--5--5--8--8--8--5--5--5--5--5--5--9--9--9--5--5--5--
A|--5--5--5--5--5--5--3--3--3--6--6--6--5--5--5--5--5--5--7--7--7--3--3--3--
E|--3--3--3--3--3--3--------------------3--3--3--3--3--3--------------------
Talk to whoever you feel like,
Just don't ever talk about me,
E|-----------------------------------------------------------------------------------
B|-----------------------------------------------------------------------------------
G|--------------------5--5--5--8--8--8--------------------9--9--9--5--5--5--5--5--5--
D|--5--5--5--5--5--5--5--5--5--8--8--8--5--5--5--5--5--5--9--9--9--5--5--5--5--5--5--
A|--5--5--5--5--5--5--3--3--3--6--6--6--5--5--5--5--5--5--7--7--7--3--3--3--3--3--3--
E|--3--3--3--3--3--3--------------------3--3--3--3--3--3-----------------------------

Verse 3: *Repeats 2nd verse part*
OH well you're so complex aren't you,
Oh I bet you wish that that were true,
Sorry for my sarcasm in case you didn't catch that,
Oh so sorry I guess that was kinda mean,
But I can't help it if you're just the worst person that I've ever seen
And I'll see you in hell,

2nd Chorus: *Repeats same part as 1st chorus*

Outro Chorus:
Talk about what you want to, (I hate you!)
Just don't talk to me, (Cause I hate you!)
E|--------------------------------------------------------------------------
B|--------------------------------------------------------------------------
G|--------------------5--5--5--8--8--8--------------------9--9--9--5--5--5--
D|--5--5--5--5--5--5--5--5--5--8--8--8--5--5--5--5--5--5--9--9--9--5--5--5--
A|--5--5--5--5--5--5--3--3--3--6--6--6--5--5--5--5--5--5--7--7--7--3--3--3--
E|--3--3--3--3--3--3--------------------3--3--3--3--3--3--------------------
Talk to whoever you feel like, (I hate you!)
Just don't ever talk about me,
Cause I hate you!
E|-----------------------------------------------------------------------------------
B|-----------------------------------------------------------------------------------
G|--------------------5--5--5--8--8--8--------------------9--9--9--5--5--5--8--------
D|--5--5--5--5--5--5--5--5--5--8--8--8--5--5--5--5--5--5--9--9--9--5--5--5--8-----5--
A|--5--5--5--5--5--5--3--3--3--6--6--6--5--5--5--5--5--5--7--7--7--3--3--3--6-----5--
E|--3--3--3--3--3--3--------------------3--3--3--3--3--3--------------------------3--
tabs and chords, guitar tabs, music transcription, music technology, deep learning, music information retrieval, transcribe into tabs & chords, chordify, music renditions, songsterr, reverbnation, tabulature, bollywood chords, ultimate guitar, yousician, guitar lessons, acoustic guitar, electric guitar, guitar tuner, 911 tabs