The Great War - Melancholic Desires - Guitar Tabs

Guitar - Acoustic
    
                                                                                                                                                                                                                                                                                                                                                                                                                                                                                                                                                                                                                                                                                                                                                                                                                                                                                                                                                                                                                                                                                                                                                                                              
E|-------------------------|-----------------------|
B|-------------------------|-----------------------|
G|-------------------------|-----------------------|
D|-------------------------|-----------------------|
A|--0--3--2--0--12-15-14-12|0--3--2--0-------------|
E|-------------------------|------------3--2--0----|

    
                                                                                                                                                                                                                                                                                                                                                                                                                                                                                                                                                                                                                                                                                                                                                                                                                                                                                                                                                                                                                                                                                                                                                                                              
E|-------------------------|-----------------------|
B|-------------------------|-----------------------|
G|-------------------------|-----------------------|
D|-----2--3--2-----3--4--3-|---2--3--2-----2--2----|
A|--0-----------1----------|1-----------0----------|
E|-------------------------|-----------------------|

    
                                                                                                                                                                                                                                                                                                                                                                                                                                                                                                                                                                                                                                                                                                                                                                                                                                                                                                                                                                                                                                                                                                                                                                                              
E|-------------------------|---------0--3--0-------|
B|-------------------------|------2-----------2----|
G|--------4--5--------5--4-|-----------------------|
D|--2--2--------2--2-------|2--2-------------------|
A|-------------------------|-----------------------|
E|-------------------------|-----------------------|

    
                                                                                                                                                                                                                                                                                                                                                                                                                                                                                                                                                                                                                                                                                                                                                                                                                                                                                                                                                                                                                                                                                                                                                                                              
E|--3--------------------0-|-----------------------|
B|-----2--------3----------|-----------------------|
G|--------3--0--------0----|---------------3-------|
D|-----------------0-------|---2--2-----2----------|
A|-------------------------|0--------0--------0----|
E|-------------------------|-----------------------|

    
                                                                                                                                                                                                                                                                                                                                                                                                                                                                                                                                                                                                                                                                                                                                                                                                                                                                                                                                                                                                                                                                                                                                                                                              
E|-------------------------|-----------------------|
B|-------------------------|-----------------------|
G|--------2-----2----------|------2----------------|
D|-----2-----2-------------|---2-----2-----2-------|
A|--0--------------0--0----|0-----------0-----0----|
E|-------------------------|-----------------------|

    
                                                                                                                                                                                                                                                                                                                                                                                                                                                                                                                                                                                                                                                                                                                                                                                                                                                                                                                                                                                                                                                                                                                                                                                              
E|-------------------------|-----------------------|
B|-------------------------|-----------------------|
G|-------------------------|-----------------------|
D|--------------2--3-------|------------5--7-------|
A|--------------2--3-------|------------5--7-------|
E|--0-----0----------------|0-----0----------------|

    
                                                                                                                                                                                                                                                                                                                                                                                                                                                                                                                                                                                                                                                                                                                                                                                                                                                                                                                                                                                                                                                                                                                                                                                              
E|-------------------------|-----------------------|
B|-------------------------|-----------------------|
G|-------------------------|-----------------------|
D|--------------2--3-------|-----------------------|
A|--------------2--3-------|3--2--0----------------|
E|--0-----0----------------|---------3--0----------|

    
                                                                                                                                                                                                                                                                                                                                                                                                                                                                                                                                                                                                                                                                                                                                                                                                                                                                                                                                                                                                                                                                                                                                                                                              
E|-------------------------|-----------------------|
B|-------------------------|-----------------------|
G|-------------------------|-----------------------|
D|--------------2--3-------|------------5--7-------|
A|--------------2--3-------|------------5--7-------|
E|--0-----0----------------|0-----0----------------|

    
                                                                                                                                                                                                                                                                                                                                                                                                                                                                                                                                                                                                                                                                                                                                                                                                                                                                                                                                                                                                                                                                                                                                                                                              
E|-------------------------|-----------------------|
B|-------------------------|-----------------------|
G|-------------------------|-----------------------|
D|--------------2--3-------|-----------------------|
A|--------------2--3-------|3--2--0----------------|
E|--0-----0----------------|---------3--0----------|

    
                                                                                                                                                                                                                                                                                                                                                                                                                                                                                                                                                                                                                                                                                                                                                                                                                                                                                                                                                                                                                                                                                                                                                                                              
E|-------------------------|-----------------------|
B|-------------------------|-----------------------|
G|-------------------------|-----------------------|
D|--------------2--3-------|------0-----5--7-------|
A|--3--2--0-----2--3-------|3--2-----0--5--7-------|
E|-------------------------|-----------------------|

    
                                                                                                                                                                                                                                                                                                                                                                                                                                                                                                                                                                                                                                                                                                                                                                                                                                                                                                                                                                                                                                                                                                                                                                                              
E|-------------------------|-----------------------|
B|-------------------------|-----------------------|
G|-------------------------|-----------------------|
D|--------2-----------2--2-|------2-----------2--2-|
A|--3--0-----0-----0--2--2-|3--0-----0-----0--2--2-|
E|--------------0----------|------------0----------|

    
                                                                                                                                                                                                                                                                                                                                                                                                                                                                                                                                                                                                                                                                                                                                                                                                                                                                                                                                                                                                                                                                                                                                                                                              
E|-------------------------|-----------------------|
B|-------------------------|-----------------------|
G|--------0----------------|-----------------------|
D|-----2-----0--------2--2-|-----------------------|
A|--3-----------3--3--2--2-|3--2--0-----------2--2-|
E|-------------------------|---------2--0-----2--2-|

    
                                                                                                                                                                                                                                                                                                                                                                                                                                                                                                                                                                                                 
E|-------------------------|
B|-------------------------|
G|-------------------------|
D|--------2-----2----------|
A|-----2-----2-----0-----3-|
E|--0-----------------0----|

    
                                                                                                                                                                                                                                                                                                                                                                                                                                                                                                                                                                                                 
E|-------------------------|
B|-----------------2-------|
G|--------------4----------|
D|-----------4-------------|
A|--5-----5----------------|
E|-----3-------------------|

    
                                                                                                                                                                                                                                                                                                                                                                                                                                                                                                                                                                                                                                                                                                                                                                                                                                                                                                                                                                                                                                                                                                                                                                                              
E|-----------7-----5-------|---------5-----3-------|
B|--------0-----0----------|------------2----------|
G|-----0-------------------|------2----------------|
D|-------------------------|-----------------------|
A|--------------------0----|---0-------------------|
E|--0--------------------0-|0--------------------0-|

    
                                                                                                                                                                                                                                                                                                                                                                                                                                                                                                                                                                                                 
E|-----------7-----5-------|
B|--------0-----0----------|
G|-----0-------------------|
D|-------------------------|
A|--------------------0----|
E|--0--------------------0-|

    
                                                                                                                                                                                                                                                                                                                                                                                                                                                                                                                                                                                                 
E|-----------5-----3-------|
B|--------------2----------|
G|--------2----------------|
D|-------------------------|
A|-----0-------------------|
E|--0--------------------0-|

    
                                                                                                                                                                                                                                                                                                                                                                                                                                                                                                                                                                                                 
E|-----------5-----3-------|
B|--------------2----------|
G|--------2----------------|
D|-------------------------|
A|-----0-------------------|
E|--0----------------------|
tabs and chords, guitar tabs, music transcription, music technology, deep learning, music information retrieval, transcribe into tabs & chords, chordify, music renditions, songsterr, reverbnation, tabulature, bollywood chords, ultimate guitar, yousician, guitar lessons, acoustic guitar, electric guitar, guitar tuner, 911 tabs