Bass Tabs for The Great Oppressor

(/) Slide Up  (\) Slide Down  (h) Hammer On  (p) Pull Off  (b) Bend (r) Release (v) Vibrato (x) Muted

Tabs for Song : 
BPM : 135

Sec 1 x 2 
Sec 2 x 2 
Sec 3 x 2 
Sec 4 x 2 
Sec 5 x 2
Sec 6 x 4
Sec 7 x 4 
Sec 8 x 4 
Sec 9 x 4 
 
Section 1 
F|-------------------------------------------------------------------------------------------------------------------------------------------------------------------------------------------------------------------------------------------------------------------------------------
C|-----------------------------------------------------5--5--5--5--5--5-----------------------------------------------------5--5--5--5--5--5-----------------------------------------------------5--5--5--5--5--5--------5--5--5--5--5--5--5--5--5--------5--5--5--5--5--5--5--5--5-----
G|--------7--7--7--7--7--7--7--7--7--6--6--6--6--6--6--------------------------7--7--7--7--7--7--7--7--7--6--6--6--6--6--6--------------------------7--7--7--7--7--7--7--7--7--6--6--6--6--6--6-----------------------------------------------------------------------------------------
D|--0--------------------------------------------------------------------0--------------------------------------------------------------------0--------------------------------------------------------------------3--------------------------------2-----------------------------------

Section 2 
F|--------------------------------------------------------------------------------------------------------------------------------------------------------------------------------------------------------------------------------------------------------------------------------------
C|--------------------------------------------------------------------------------------------------------------------------------------------------------------------------------------------------------------------------------------------------------------------------------------
G|--------7--7--7--7--7--7--7--7--7--7--7--7--7--7--7--6-----6-----6--------7--7--7--7--7--7--7--7--7--7--7--7--7--7--7--8-----8-----8--------7--7--7--7--7--7--7--7--7--7--7--7--7--7--7--6-----6-----6--------------------------------------------------------------------------------
D|--0-----------------------------------------------------------------0-----------------------------------------------------------------0--------------------------------------------------------------------6--6--6--7--7--7--6--6--6--3--3--3--6--6--6--3--3--3--2--2--2--3--3--3--0--

Section 3
F|-------------------------------------------------------------------------------------------------------------------------------------------------------------------------------------------------------------------------------------------------------------------
C|--------------------------------------------------------------------------------------------------------------------------------------------------------------------------------------------------------------------------------------------------------------------
G|--------7--7--7--7--7--7--7--7--7--6--6--6--6--6--6--6--6--6--6--6--6--------7--7--7--7--7--7--7--7--7--6--6--6--6--6--6--6--6--6--6--6--6--------7--7--7--7--7--7--7--7--7--6--6--6--6--6--6--6--6--6--6--6--6--3--3--3--3--3--3--3--3--2--2--2--2--2--2--2--2-----
D|--0--------------------------------------------------------------------0--------------------------------------------------------------------0-----------------------------------------------------------------------------------------------------------------------

Section 4
F|-----------------------------------------------------------------------------------------------------------------------------------------------------------------------------------------------------------------------------------------------
C|-----------------------------------------------------------------------------------------------------------------------------------------------------------------------------------------------------------------------------------------------
G|--------7--7--7--7--7--7--7--7--7--7--7--7--7--7--7--6-----6-----6--------7--7--7--7--7--7--7--7--7--7--7--7--7--7--7--8-----8-----8--------7--7--7--7--7--7--7--7--7--7--7--7--7--7--7--6-----6-----6-----3--------3--------------------------
D|--0-----------------------------------------------------------------0-----------------------------------------------------------------0-----------------------------------------------------------------------------------4--3--1--3--3--3--3--

Section 5
F|--------------------------------------------------------------------------------------------------------------------------------------------------------------------------------------------------------------------------------------------------------------------------------------------------
C|--------------------------------------------------------------------------------------------------------------------------------------------------------------------------------------------------------------------------------------------------------------------------------------------------
G|--------------------------------------------------------------------------------------------------------------------------------------------------------------------------------------------------------------------------------------------------------------------------------------------------
D|--0--0--0--0--0--0--0--0--0--2--2--2--3--3--3--3--3--3--7--7--7--7--7--7--6--6--6--6--6--6--6--6--6--6--6--6--7--7--7--6--6--6--3--3--3--6--6--6--0--0--0--0--0--0--0--0--0--2--2--2--3--3--3--3--3--3--7--7--7--7--7--7--6--6--6--6--6--6--6--6--6--6--6--6--6--7-----6-----7-----6-----2-----6--


Section 6
F|-----------------------------------------------------------------------------------------------------------------------------------------------------------------------------------------------
C|--------------------------------------------------------------------------------------6--6--6--6--------------------------------------------------------5--5--5--5--5--5--------5--5--5--5--5--
G|--------7--7--9--9--10-10-3--3--3--3--6--6--6--6--------7--7--9--9--10-10-3--3--3--3--------------------7--7--9--9--10-10-3--3--3--3--6--6--6--6-----------------------------------------------
D|--0-----------------------------------------------0-----------------------------------------------0-----------------------------------------------3-----------------------2--------------------

Section 7 
F|--------------------------------------------------------------------------------------------------------------------------------------------------------------------------------------------------
C|--------------------------------------------------------------------------------------------------------------------------------------------------------------------------------------------------
G|-----------7--7--6--6--3--3--2--2--0--0--2--2--2--2--------7--7--6--6--3--3--2--2--0--0--2--2--2--2--------7--7--6--6--3--3--2--2--0--0--2--2--2--2--6--6--6--6--6--6--6--6--6--6--6--6--6--6--7--
D|-----0-----------------------------------------------0-----------------------------------------------0--------------------------------------------------------------------------------------------

Section 8 

F|--------------------------------------------------------------------------------------------------------------------------------------------------------------------------------------------------
C|--------------------------------------------------------------------------------------------------------------------------------------------------------------------------------------------------
G|--5--5--5--5--5--5--5--5--5--5--5--5--6--6--6--6--5--5--5--5--5--5--5--5--5--5--5--5--4--4--4--4--5--5--5--5--5--5--5--5--5--5--5--5--6--6--6--6--8--8--8--8--8--8--8--8--8--8--8--8--8--8--8--8--
D|--------------------------------------------------------------------------------------------------------------------------------------------------------------------------------------------------

Section 9 
F|--------------------------------------------------
C|--------------------------------------------------
G|--5--5--5--5--5--5--5--5--4--4--4--4--1--1--4--4--
D|--------------------------------------------------



tabs and chords, guitar tabs, music transcription, music technology, deep learning, music information retrieval, transcribe into tabs & chords, chordify, music renditions, songsterr, reverbnation, tabulature, bollywood chords, ultimate guitar, yousician, guitar lessons, acoustic guitar, electric guitar, guitar tuner, 911 tabs