Guitar Tabs for The Godfather Theme Guitar Tabs


E|-----12-15-14-12-15-12-14-12----------------
B|--12-------------------------13-15-12-------
G|--------------------------------------------
D|--------------------------------------------
A|--------------------------------------------
E|--------------------------------------------

E|-----12-15-14-12-15-12-14-12----------------
B|--12-------------------------12-11-10-------
G|--------------------------------------------
D|--------------------------------------------
A|--------------------------------------------
E|--------------------------------------------

E|--------12-12/14-------------11-12----------
B|--10-13----------------10-13----------------
G|--------------------------------------------
D|--------------------------------------------
A|--------------------------------------------
E|--------------------------------------------

E|--------10-8--7--10-8--8--7--7--------------
B|-----12-------------------------------------
G|--9-----------------------------8---8/9-----
D|--------------------------------------------
A|--------------------------------------------
E|--------------------------------------------

E|-----10/12-12-11-10-------12/14-------------
B|--------------------------------15-13-12----
G|--------------------------------------------
D|--------------------------------------------
A|--------------------------------------------
E|--------------------------------------------

E|--------10----------------------------
B|--10/12----12-10----10-13-11-12-------
G|--------------------------------------
D|--------------------------------------
A|--------------------------------------
E|--------------------------------------

E|-----12-15-14-12-15-12-14-12----------------
B|--12-------------------------13-15-12-------
G|--------------------------------------------
D|--------------------------------------------
A|--------------------------------------------
E|--------------------------------------------
tabs and chords, guitar tabs, music contests, music covers, songsterr, reverbnation, renditions, tabulature, bollywood chords, ultimate guitar, yousician, guitar lessons, torrins, fender, gibson, acoustic guitar, electric guitar, youtube covers, gootar, guitar tuner, A-Z tabs, 911 tabs