Guitar Tabs for The Godfather Theme

(/) Slide Up  (\) Slide Down  (h) Hammer On  (p) Pull Off  (b) Bend (r) Release (v) Vibrato (x) Muted

Tabs for Song : Godfather Theme

Song lyrics here
E|--------0--3--2--0--3--0--2--0-----------------------
B|-----0--------------------------1--3--0--0--0--0--0--
G|-----------------------------------------------------
D|-----------------------------------------------------
A|-----------------------------------------------------
E|-----------------------------------------------------

Song lyrics here
E|-----0--3--2--0--3--0--2--0-----------------------
B|--0-----------------------------------------------
G|-----------------------------4--3--2--2--2--2--2--
D|--------------------------------------------------
A|--------------------------------------------------
E|--------------------------------------------------

E|-----------2--2--2--2--2-----------------------
B|-----1--4--------------------1--4--5-----------
G|--2-----------------------2--------------------
D|-----------------------------------------------
A|-----------------------------------------------
E|-----------------------------------------------

E|--------------------------------------------------
B|--------3--1--0--3--0--1--0--0--------------------
G|-----0--------------------------------------------
D|--2-----------------------------1--2--------------
A|--------------------------------------------------
E|--------------------------------------------------

E|--0--0-----------------2--2--2-----------------
B|--------4--3--3--3--3-----------1--0-----------
G|-----------------------------------------------
D|-----------------------------------------------
A|-----------------------------------------------
E|-----------------------------------------------

E|-----------------------------------------
B|--0--3--0--------------1-----0-----------
G|-----------2--------2-----3--------------
D|-----------------------------------------
A|-----------------------------------------
E|-----------------------------------------

E|-----0--3--2--0--3--0--2--0-----------------------
B|--0--------------------------1--3--0--0--0--0-----
G|--------------------------------------------------
D|--------------------------------------------------
A|--------------------------------------------------
E|--------------------------------------------------

E|-----------------------------------------
B|--0--3--0--------------1-----0-----------
G|-----------2--------2-----3--------------
D|-----------------------------------------
A|-----------------------------------------
E|-----------------------------------------

Paste any tab in acousterr's tab maker and we'll play it !!!
Now supports capo and sound effects for vibrato/pull-off/hammer/bends/mutes etc !!! Checkout help section
tabs and chords, guitar tabs, music transcription, music technology, deep learning, music information retrieval, transcribe into tabs & chords, chordify, music renditions, songsterr, reverbnation, tabulature, bollywood chords, ultimate guitar, yousician, guitar lessons, acoustic guitar, electric guitar, guitar tuner, 911 tabs