Guitar Tabs for The Glory Is Yours (key G)

(/) Slide Up  (\) Slide Down  (h) Hammer On  (p) Pull Off  (b) Bend (r) Release (v) Vibrato (x) Muted

Tabs for Song : Glory is Yours (Key G)

Intro:
E|-----------3-----------------------------3--------------
B|--------3-----3-----------------------3-----3-----------
G|---4h5-----------4--2--2--4-----4--5-----------4--2--0--
D|--------------------------------------------------------
A|--------------------------------------------------------
E|--------------------------------------------------------
Verse:
E|-----------10-7--
B|--8-----8--------
G|-----7-----------
D|-----------------
A|-----------------
E|-----------------

E|-----------10-7--
B|--8-----8--------
G|-----9-----------
D|-----------------
A|-----------------
E|-----------------

E|-----------10-8--
B|--8-----8--------
G|-----9-----------
D|-----------------
A|-----------------
E|-----------------



Chorus:
E|-----------------------------------------------------
B|-----------------------------------------------------
G|--7--7--7--9--7--7--7--7--9--7--4--4--4--2--2--2--0--
D|-----------------------------------------------------
A|-----------------------------------------------------
E|-----------------------------------------------------

Bridge:
E|-----------------------------------------
B|-----8--7--------------10----------12----
G|--7--------7------9/11----11/12----12----
D|-----------------------------------------
A|-----------------------------------------
E|-----------------------------------------

Paste any tab in acousterr's tab maker and we'll play it !!!
Now supports capo and sound effects for vibrato/pull-off/hammer/bends/mutes etc !!! Checkout help section
tabs and chords, guitar tabs, music transcription, music technology, deep learning, music information retrieval, transcribe into tabs & chords, chordify, music renditions, songsterr, reverbnation, tabulature, bollywood chords, ultimate guitar, yousician, guitar lessons, acoustic guitar, electric guitar, guitar tuner, 911 tabs