Guitar Tabs for The Girl Of My Dreams (strange As It Seems)

(/) Slide Up  (\) Slide Down  (h) Hammer On  (p) Pull Off  (b) Bend (r) Release (v) Vib-x--x-----x--x--x-----x--x--x-----x--x--x-----x--x--x-----x--x--x-----x--x--x-----x--x--x-----x--x--x-----x--x--x-----x--x--x-----x--x--x-----x--x--x-----x--x--x--x--x--x--x--x--x--

E|--------------------------------------------------------------------------------------------------------------------------------------------------------------------------------------------------
B|--8-----------8-----------8-----------8-----------6-----------6-----------6-----------6-----------4-----------4-----------4-----------4-----------3-----------------------3-----------------------
G|--------9-----------9-----------9-----------9-----------7-----------7-----------7-----------7-----------5-----------5-----------5-----------5-----------4-----4-----4-----------4-----4-----4-----
D|-----9-----9-----9-----9-----9-----9-----9-----9-----7-----7-----7-----7-----7-----7-----7-----7-----5-----5-----5-----5-----5-----5-----5-----5-----4-----4-----4-----4-----4-----4-----4-----4--
A|--------------------------------------------------------------------------------------------------------------------------------------------------------------------------------------------------
E|--------------------------------------------------------------------------------------------------------------------------------------------------------------------------------------------------

Song lyrics here 

\

Use manual mode to free up cursor. Paste any tab in acousterr tab maker and we'll play it !!!

Bass Tabs for The Girl Of My Dreams (strange As It Seems)


G|--------------------------------------------------------------------------------------------------------------------------------------------------------------------------------------------------
D|--9-----------9-----------9-----------9-----------7-----------7-----------7-----------7-----------5-----------5-----------5-----------5-----------4-----------4-----------4-----------4-----------
A|--------------------------------------------------------------------------------------------------------------------------------------------------------------------------------------------------
E|--------------------------------------------------------------------------------------------------------------------------------------------------------------------------------------------------

Piano Tabs for The Girl Of My Dreams (strange As It Seems)


2|--------------------------------------------------------------------------------------------------------------------------------------------------------------------------------------------------
3|--------------------------------------------------------------------------------------------------------------------------------------------------------------------------------------------------
4|--b-----------b-----------b-----------b-----b-----a-----------a-----------a-----------a-----a-----g-----------g-----------g-----------g-----------F#----------F#----------F#----------F#----F#----
5|--------------------------------------------------------------------------------------------------------------------------------------------------------------------------------------------------

tabs and chords, guitar tabs, music transcription, music technology, deep learning, music information retrieval, transcribe into tabs & chords, chordify, music renditions, songsterr, reverbnation, tabulature, bollywood chords, ultimate guitar, yousician, guitar lessons, acoustic guitar, electric guitar, guitar tuner, 911 tabs