The Father - Guitar Tabs

(/) Slide Up  (\) Slide Down  (h) Hammer On  (p) Pull Off  (b) Bend (r) Release (v) Vibrato (x) Muted

Tabs for Song : 
BPM : 135

Song lyrics here 
C|---------------------------3h3-----------------------------------------------------------------0-----------------------
G|---5h5---------5h5---------3h3---------------5h5---------7h7------0h0--------------------------------5-----------5-----
C|---5h5---------3h3---------0h2---------------5h5---------7h7------2h2--------12/14p2--------------3-----------3-----3--
F|---3h3---------2h2---------------------------3h3---------5h5------0h0-----------------------------------2--------------
A|-----------------------------------------------------------------------------------------------------------------------
D|-----------------------------------------------------------------------------------------------------------------------

C|--0-----------------------3-----------------------3-----------------------5-----------------------5-----------------------1-----------------------------------------------
G|--------5-----------5-----------3-----------3-----------3-----------3-----------5-----------5-----------5-----------5-----------1-----------1-----------1--------------0--
C|-----3-----------3-----3-----3-----------3-----3-----3-----------3-----3-----5-----------5-----5-----5-----------5-----5-----3-----------3-----------3-----2--------2-----
F|-----------2-----------------------5-----------------------5-----------------------3-----------------------3-----------------------2-----------0-----------------0--------
A|--------------------------------------------------------------------------------------------------------------------------------------------------------------------------
D|--------------------------------------------------------------------------------------------------------------------------------------------------------------------------

C|-----------------------------------------------------------------------------------------------------------------																						hh
G|---3/5--5--5--5-----5--5--5--5---5/7--7--7--7--------7--7--7--7------7/10-12-12-12-12-10-10-9--9---3/5--5--5--5--
C|---5/7--7--7--7-----7--7--7--7---7/7--7--7--7--------7--7--7--7------7/10-12-12-12-12-10-10-9--9---3/5--7--7--7--
F|---5/7--7--7--7-----7--7--7--7---7/9--9--9--9--10-9--9--9--9--9------9/12-14-14-14-14-12-12-11-11--5/7--7--7--7--
A|-----------------------------------------------------------------------------------------------------------------
D|-----------------------------------------------------------------------------------------------------------------

C|--
G|--
C|--
F|--
A|--
D|--

Song lyrics here 
C|--
G|--
C|--
F|--
A|--
D|--

Use manual mode to free up cursor. Paste any tab in acousterr tab maker and we'll play it !!!

About Robby Stewart : The character is based on Jed Clampett, the main character of The Beverly Hillbillies . He appears in all episodes in seasons 1 and 2, is absent for 3 episodes in season 3 . Billy Ray Cyrus auditioned for the part along with two other actors . Miley admitted that it was "weird" at first having her real life dad as her TV dad . Billy Ray provided much of the inspiration for the character which largely became a fictional Robby Stewart has a significant contribution from artist(s) Robby Ray Stewart,Hannah Montana,Billy Ray Cyrus,Miley Stewart,Jed Clampett.

About Billy Ray Cyrus - Billy Ray Cyrus has released 16 studio albums and 53 singles since 1992 . He is known for his number one single "Achy Breaky Heart", which became the first single to achieve triple platinum status in Australia . Cyrus has scored a total of eight top-ten singles on the Billboard Hot Country Songs chart . His most successful album to date is his debut Some Gave All, which has been certified 9× Multi-Platinum in the United States . Cyrus starred in the television show Doc. The show was about a country doctor who moved from Montana to New York City . He co-starred in the Disney Channel series Hannah Montana with his daughter Miley Cyrus . Billy Ray Cyrus's most popular songs include - Achy Breaky Heart. Billy Ray Cyrus's music is influenced by genre(s) - country.

About Hannah Montana - Hannah Montana Forever in its fourth and final season . It focuses on Miley Stewart (portrayed by Miley Cyrus), a teenage girl living a double life as an average schoolgirl by day and as Hannah Montana by night . The series premiered on Disney Channel on March 24, 2006 . The premiere episode garnered 5.4 million views, giving Disney Channel the highest ratings in its history . The series concluded on January 16, 2011 . The series received generally favorable reviews from critics and was praised by audiences . It has been recognized as a "guilty pleasure" by several media outlets . The series has received criticism for appearing to be a negative influence on its younger audience . Hannah Montana's music is influenced by genre(s) - teen sitcom.

tabs and chords, guitar tabs, music transcription, music technology, deep learning, music information retrieval, transcribe into tabs & chords, chordify, music renditions, songsterr, reverbnation, tabulature, bollywood chords, ultimate guitar, yousician, guitar lessons, acoustic guitar, electric guitar, guitar tuner, 911 tabs