The Evil Has Landed - Queens Of The Stone Age - Guitar Tabs

Main Guitar
    
                                                                                                                                                                                                                                                                                                                                                                                                                                                                                                                                                                                                                                                                                                                                                                                                                                                                                                                                                                                                                                                                                                                                                                                              
E|--x--x--x--x--x--x-----x--x--x-----x-|x--x--x--x--x--x----------|
B|--x--x--x--x--x--x-----x--x--x-----x-|x--x--x--x--x--x----------|
G|--x--x--x--x--x--x-----x--x--x-----x-|x--x--x--x--x--x----------|
D|--x--x--x--x--x--x-----x--x--x-----x-|x--x--x--x--x--x----------|
A|--x--x--x--x--x--x-----x--x--x-----x-|x--x--x--x--x--x------0/--|
E|--x--x--x--x--x--x-----x--x--x-----x-|x--x--x--x--x--x----------|

    
                                                                                                                                                                                                                                                                                                                                                                                                                                                                                                                                                                                                                                                                                                                                                                                                                                                                                                                                                                                                                                                                                                                                                                                              
E|-------------------------------------------|-----------------------------------------|
B|-------------------------------------------|-----------------------------------------|
G|--------------------------------9--12------|------------------9--12------------------|
D|-----------------------------10------------|---------------10-------10---------------|
A|--10-11-12-0-----10-10-11-12----------10---|10-11-12-0-----------------12-7-----10---|
E|-------------------------------------------|---------------------------------8-------|

    
                                                                                                                                                                                                                                                                                                                                                                                                                                                                                                                                                                                                                                                                                                                                                                                                                                                                                                                                                                                                                                                                                                                                                                                              
E|-------------------------------------------|-----------------------------------------|
B|-------------------------------------------|-----------------------------------------|
G|--------------------------------9--12------|------------------9--12------------------|
D|-----------------------------10------------|---------------10-------10---------------|
A|--10-11-12-0-----10-10-11-12----------10---|10-11-12-0-----------------12-7-----10---|
E|-------------------------------------------|---------------------------------8-------|

    
                                                                                                                                                                                                                                                                                                                                                                                                                                                                                                                                                                                                                                                                                                                                                                                                                                                                                                                                                                                                                                                                                                                                                                                              
E|-------------------------------------------|-----------------------------------------|
B|-------------------------------------------|-----------------------------------------|
G|--------------------------------9--12------|------------------9--12------------------|
D|-----------------------------10------------|---------------10-------10---------------|
A|--10-11-12-0-----10-10-11-12----------10---|10-11-12-0-----------------12-7-----10---|
E|-------------------------------------------|---------------------------------8-------|

    
                                                                                                                                                                                                                                                                                                                                                                                                                                                                                                                                                                                                                                                                                                                                                                                                                                                                                                                                                                                                                                                                                                                                                                                              
E|-------------------------------------------|-----------------------------------------|
B|-------------------------------------------|-----------------------------------------|
G|--------------------------------9--12------|------------------9--12----------------9-|
D|-----------------------------10------------|---------------10-------10-------------10|
A|--10-11-12-0-----10-10-11-12----------10---|10-11-12-0-----------------12-7-----10-10|
E|-------------------------------------------|---------------------------------8-----8-|

    
                                                                                                                                                                                                                                                                                                                                                                                                                                                                                                                                                                                                                                                                                                                                                                                                                                                                                                                                                                                                                                                                                                                                                                                              
E|-------------------------------|--------------------------------|
B|--10-10-10-10-10---------------|12-14-14-14-12-12---------------|
G|--10-10-10-10-10-9--11---------|12-14-14-14-12-12-9--9--------9-|
D|--10-10-10-10-10-10-12---------|12-14-14-14-12-12-10-10-------10|
A|--8--8--8--8--8--10-12---------|10-12-12-12-10-10-10-10-------10|
E|-----------------8--10---------|------------------8--8--------8-|

    
                                                                                                                                                                                                                                                                                                                                                                                                                                                                                                                                                                                                                                                                                                                                                                                                                                                                                                                                                                                                                                                                                                                                                                                              
E|-------------------------------|--------------------------------|
B|--10-10-10-10-10-------------9-|--------------------------------|
G|--10-10-10-10-10-9--11-------9-|9--6--6--6--4--4--6--6--------9-|
D|--10-10-10-10-10-10-12-------9-|10-7--7--7--5--5--7--7--------10|
A|--8--8--8--8--8--10-12-------7-|10-7--7--7--5--5--7--7--------10|
E|-----------------8--10---------|8--5--5--5--3--3--5--5--------8-|

    
                                                                                                                                                                                                                                                                                                                                                                                                                                                                                                                                                                                                                                                                                                                                                                                                                                                                                                                                                                                                                                                                                                                                                                                              
E|-------------------------------|--------------------------------|
B|--10-10-10-10-10---------------|12-14-14-14-12-12---------------|
G|--10-10-10-10-10-9--11---------|12-14-14-14-12-12-9--9--------9-|
D|--10-10-10-10-10-10-12---------|12-14-14-14-12-12-10-10-------10|
A|--8--8--8--8--8--10-12---------|10-12-12-12-10-10-10-10-------10|
E|-----------------8--10---------|------------------8--8--------8-|

    
                                                                                                                                                                                                                                                                                                                                                                                                                                                                                                                                                                                                                                                                                                                                                                                                                                                                                                                                                                                                                                                                                                                                                                                              
E|-------------------------------|--------------------------------|
B|--10-10-10-10-10-------------9-|--------------------------------|
G|--10-10-10-10-10-9--11-------9-|9--6--6--4--4--4--9--9--------9-|
D|--10-10-10-10-10-10-12-------9-|10-7--7--7--5--5--10-10-------10|
A|--8--8--8--8--8--10-12-------7-|10-7--7--7--5--5--10-10-------10|
E|-----------------8--10---------|8--5--5--5--3--3--8--8--------8-|

    
                                                                                                                                                                                                                                                                                                                                                                                                                                                                                                                                                                                                                                                                                                                                                                                                                                                                                                                                                                                                                                                                                                                                                                                              
E|-------------------------------|--------------------------------|
B|--10-10-10-10-10---------------|12-14-14-14-12-12---------------|
G|--10-10-10-10-10-9--11---------|12-14-14-14-12-12-9--9--------9-|
D|--10-10-10-10-10-10-12---------|12-14-14-14-12-12-10-10-------10|
A|--8--8--8--8--8--10-12---------|10-12-12-12-10-10-10-10-------10|
E|-----------------8--10---------|------------------8--8--------8-|

    
                                                                                                                                                                                                                                                                                                                                                                                                                                                                                                                                                                                                                                                                                                                                                                                                                                                                                                                                                                                                                                                                                                                                                                                              
E|-------------------------------|--------------------------------|
B|--10-10-10-10-10-------------9-|--------------------------------|
G|--10-10-10-10-10-9--11-------9-|9--6--6--6--4--4--9--9--------9-|
D|--10-10-10-10-10-10-12-------9-|10-7--7--7--5--5--10-10-------10|
A|--8--8--8--8--8--10-12-------7-|10-7--7--7--5--5--10-10-------10|
E|-----------------8--10---------|8--5--5--5--3--3--8--8--------8-|

    
                                                                                                                                                                                                                                                                                                                                                                                                                                                                                                                                                                                                                                                                                                                                                                                                                                                                                                                                                                                                                                                                                                                                                                                              
E|-------------------------------|--------------------------------|
B|--10-10-10-10-10---------------|12-14-14-14-12-12---------------|
G|--10-10-10-10-10-9--11---------|12-14-14-14-12-12-9--9--------9-|
D|--10-10-10-10-10-10-12---------|12-14-14-14-12-12-10-10-------10|
A|--8--8--8--8--8--10-12---------|10-12-12-12-10-10-10-10-------10|
E|-----------------8--10---------|------------------8--8--------8-|

    
                                                                                                                                                                                                                                                                                                                                                                                                                                                                                                                                                                                                                                                                                                                                                                                                                                                                                                                                                                                                                                                                                                                                                                                              
E|-------------------------------|--------------------------------|
B|--10-10-10-10-10-------------9-|--------------------------------|
G|--10-10-10-10-10-9--11-------9-|9--6--6--6--4--4--9--9--------9-|
D|--10-10-10-10-10-10-12-------9-|10-7--7--7--5--5--10-10-------10|
A|--8--8--8--8--8--10-12-------7-|10-7--7--7--5--5--10-10-------10|
E|-----------------8--10---------|8--5--5--5--3--3--8--8--------8-|

    
                                                                                                                                                                                                                                                                                                                                                                                                                                                                                                                                                                                                                                                                                                                                                                                                                                                                                                                                                                                                                                                                                                                                                                                              
E|-------------------------------|-----------------------------------------|
B|-------------------------------|-----------------------------------------|
G|--10-10-10-10-10---------------|------------------------------9--12------|
D|--10-10-10-10-10-10-12---------|---------------------------10------------|
A|--8--8--8--8--8--10-12---------|10-11-12-0-----10-10-11-12----------10---|
E|-----------------8--10---------|-----------------------------------------|

    
                                                                                                                                                                                                                                                                                                                                                                                                                                                                                                                                                                                                                                                                                                                                                                                                                                                                                                                                                                                                                                                                                                                                                                                              
E|-------------------------------------------|-----------------------------------------|
B|-------------------------------------------|-----------------------------------------|
G|--------------------9--12------------------|------------------------------9--12------|
D|-----------------10-------10---------------|---------------------------10------------|
A|--10-11-12-0-----------------12-7-----10---|10-11-12-0-----10-10-11-12----------10---|
E|-----------------------------------8-------|-----------------------------------------|

    
                                                                                                                                                                                                                                                                                                                                                                                                                                                                                                                                                                                                                                                                                                                                                                                                                                                                                                                                                                                                                                                                                                                                                                                              
E|-------------------------------------------|-----------------------------------------|
B|-------------------------------------------|-----------------------------------------|
G|--------------------9--12------------------|------------------------------9--12------|
D|-----------------10-------10---------------|---------------------------10------------|
A|--10-11-12-0-----------------12-7-----10---|10-11-12-0-----10-10-11-12----------10---|
E|-----------------------------------8-------|-----------------------------------------|

    
                                                                                                                                                                                                                                                                                                                                                                                                                                                                                                                                                                                                                                                                                                                                                                                                                                                                                                                                                                                                                                                                                                                                                                                              
E|-------------------------------------------|-----------------------------------------|
B|-------------------------------------------|-----------------------------------------|
G|--------------------9--12------------------|------------------------------9--12------|
D|-----------------10-------10---------------|---------------------------10------------|
A|--10-11-12-0-----------------12-7-----10---|10-11-12-0-----10-10-11-12----------10---|
E|-----------------------------------8-------|-----------------------------------------|

    
                                                                                                                                                                                                                                                                                                                                                                                                                                                                                                                                                                                                                                                                                                                                                                                                                                                                                                                                                                                                                                                                                                                                                                                              
E|-------------------------------------------|-----------------------------|
B|-------------------------------------------|10-10-10-10-10---------------|
G|--------------------9--12----------------9-|10-10-10-10-10-9--11---------|
D|-----------------10-------10-------------10|10-10-10-10-10-10-12---------|
A|--10-11-12-0-----------------12-7-----10-10|8--8--8--8--8--10-12---------|
E|-----------------------------------8-----8-|---------------8--10---------|

    
                                                                                                                                                                                                                                                                                                                                                                                                                                                                                                                                                                                                                                                                                                                                                                                                                                                                                                                                                                                                                                                                                                                                                                                              
E|----------------------------------|-----------------------------|
B|--12-14-14-14-12-12---------------|10-10-10-10-10-------------9-|
G|--12-14-14-14-12-12-9--9--------9-|10-10-10-10-10-9--11-------9-|
D|--12-14-14-14-12-12-10-10-------10|10-10-10-10-10-10-12-------9-|
A|--10-12-12-12-10-10-10-10-------10|8--8--8--8--8--10-12-------7-|
E|--------------------8--8--------8-|---------------8--10---------|

    
                                                                                                                                                                                                                                                                                                                                                                                                                                                                                                                                                                                                                                                                                                                                                                                                                                                                                                                                                                                                                                                                                                                                                                                              
E|----------------------------------|-----------------------------|
B|----------------------------------|10-10-10-10-10---------------|
G|--9--6--6--6--4--4--9--9--------9-|10-10-10-10-10-9--11---------|
D|--10-7--7--7--5--5--10-10-------10|10-10-10-10-10-10-12---------|
A|--10-7--7--7--5--5--10-10-------10|8--8--8--8--8--10-12---------|
E|--8--5--5--5--3--3--8--8--------8-|---------------8--10---------|

    
                                                                                                                                                                                                                                                                                                                                                                                                                                                                                                                                                                                                                                                                                                                                                                                                                                                                                                                                                                                                                                                                                                                                                                                              
E|----------------------------------|-----------------------------|
B|--12-14-14-14-12-12---------------|10-10-10-10-10-------------9-|
G|--12-14-14-14-12-12-9--9--------9-|10-10-10-10-10-9--11-------9-|
D|--12-14-14-14-12-12-10-10-------10|10-10-10-10-10-10-12-------9-|
A|--10-12-12-12-10-10-10-10-------10|8--8--8--8--8--10-12-------7-|
E|--------------------8--8--------8-|---------------8--10---------|

    
                                                                                                                                                                                                                                                                                                                                                                                                                                                                                                                                                                                                                                                                                                                                                                                                                                                                                                                                                                                                                                                                                                                                                                                              
E|----------------------------------|-----------------------------|
B|----------------------------------|10-10-10-10-10---------------|
G|--9--6--6--6--4--4--9--9--------9-|10-10-10-10-10-9--11---------|
D|--10-7--7--7--5--5--10-10-------10|10-10-10-10-10-10-12---------|
A|--10-7--7--7--5--5--10-10-------10|8--8--8--8--8--10-12---------|
E|--8--5--5--5--3--3--8--8--------8-|---------------8--10---------|

    
                                                                                                                                                                                                                                                                                                                                                                                                                                                                                                                                                                                                                                                                                                                                                                                                                                                                                                                                                                                                                                                                                                                                                                                              
E|----------------------------------|-----------------------------|
B|--12-14-14-14-12-12---------------|10-10-10-10-10-------------9-|
G|--12-14-14-14-12-12-9--9--------9-|10-10-10-10-10-9--11-------9-|
D|--12-14-14-14-12-12-10-10-------10|10-10-10-10-10-10-12-------9-|
A|--10-12-12-12-10-10-10-10-------10|8--8--8--8--8--10-12-------7-|
E|--------------------8--8--------8-|---------------8--10---------|

    
                                                                                                                                                                                                                                                                                                                                                                                                                                                                                                                                                                                                                                                                                                                                                                                                                                                                                                                                                                                                                                                                                                                                                                                              
E|----------------------------------|-----------------------------|
B|----------------------------------|10-10-10-10-10---------------|
G|--9--6--6--6--4--4--9--9--------9-|10-10-10-10-10-9--11---------|
D|--10-7--7--7--5--5--10-10-------10|10-10-10-10-10-10-12---------|
A|--10-7--7--7--5--5--10-10-------10|8--8--8--8--8--10-12---------|
E|--8--5--5--5--3--3--8--8--------8-|---------------8--10---------|

    
                                                                                                                                                                                                                                                                                                                                                                                                                                                                                                                                                                                                                                                                                                                                                                                                                                                                                                                                                                                                                                                                                                                                                                                              
E|----------------------------------|-----------------------------|
B|--12-14-14-14-12-12---------------|10-10-10-10-10-------------9-|
G|--12-14-14-14-12-12-9--9--------9-|10-10-10-10-10-9--11-------9-|
D|--12-14-14-14-12-12-10-10-------10|10-10-10-10-10-10-12-------9-|
A|--10-12-12-12-10-10-10-10-------10|8--8--8--8--8--10-12-------7-|
E|--------------------8--8--------8-|---------------8--10---------|

    
                                                                                                                                                                                                                                                                                                                                                                                                                                                                                                                                                                                                                                                                                                                                                                                                                                                                                                                                                                                                                                                                                                                                                                                              
E|----------------------------------|-----------------------------|
B|----------------------------------|10-10-10-10-10---------------|
G|--9--6--6--6--4--4--9--9--------9-|10-10-10-10-10-9--11---------|
D|--10-7--7--7--5--5--10-10-------10|10-10-10-10-10-10-12---------|
A|--10-7--7--7--5--5--10-10-------10|8--8--8--8--8--10-12---------|
E|--8--5--5--5--3--3--8--8--------8-|---------------8--10---------|

    
                                                                                                                                                                                                                                                                                                                                                                                                                                                                                                                                                                                                                                                                                                                                                                                                                                                                                                                                                                                                                                                                                                                                                                                              
E|--10-10-10----10----10----10----10-10-10-10-10-10|10-10-10----10----10----10----10-10-10-10-10-10|
B|--11-11-11----11----11----11----11-11-11-11-11-11|11-11-11----11----11----11----11-11-11-11-11-11|
G|--12-12-12----12----12----12----12-12-12-12-12-12|12-12-12----12----12----12----12-12-12-12-12-12|
D|-------------------------------------------------|-----------------------------------------------|
A|-------------------------------------------------|-----------------------------------------------|
E|-------------------------------------------------|-----------------------------------------------|

    
                                                                                                                                                                                                                                                                                                                                                                                                                                                                                                                                                                                                                                                                                                                                                                                                                                                                                                                                                                                                                                                                                                                                                                                              
E|--8--8--8-----8-----8-----8-----8--8--8--8--8--8-|8--8--8-----8-----8-----8-----8--8--8--8--8--8-|
B|--8--8--8-----8-----8-----8-----8--8--8--8--8--8-|8--8--8-----8-----8-----8-----8--8--8--8--8--8-|
G|--9--9--9-----9-----9-----9-----9--9--9--9--9--9-|9--9--9-----9-----9-----9-----9--9--9--9--9--9-|
D|-------------------------------------------------|-----------------------------------------------|
A|-------------------------------------------------|-----------------------------------------------|
E|-------------------------------------------------|-----------------------------------------------|

    
                                                                                                                                                                                                                                                                                                                                                                                                                                                                                                                                                                                                                                                                                                                                                                                                                                                                                                                                                                                                                                                                                                                                                                                              
E|--10-10-10----10----10----10----10-10-10-10-10-10|10-10-10----10----10----10----10-10-10-10-10-10|
B|--11-11-11----11----11----11----11-11-11-11-11-11|11-11-11----11----11----11----11-11-11-11-11-11|
G|--12-12-12----12----12----12----12-12-12-12-12-12|12-12-12----12----12----12----12-12-12-12-12-12|
D|-------------------------------------------------|-----------------------------------------------|
A|-------------------------------------------------|-----------------------------------------------|
E|-------------------------------------------------|-----------------------------------------------|

    
                                                                                                                                                                                                                                                                                                                                                                                                                                                                                                                                                                                                                                                                                                                                                                                                                                                                                                                                                                                                                                                                                                                                                                                              
E|--8--8--8-----8-----8-----8-----8--8--8--8--8--8-|8--8--8-----8-----8-----8-----8--8--8--8--8--8-|
B|--8--8--8-----8-----8-----8-----8--8--8--8--8--8-|8--8--8-----8-----8-----8-----8--8--8--8--8--8-|
G|--9--9--9-----9-----9-----9-----9--9--9--9--9--9-|9--9--9-----9-----9-----9-----9--9--9--9--9--9-|
D|-------------------------------------------------|-----------------------------------------------|
A|-------------------------------------------------|-----------------------------------------------|
E|-------------------------------------------------|-----------------------------------------------|

About Villains (Queens of the Stone Age album) : Villains is the seventh studio album by American rock band Queens of the Stone Age . The album was announced on June 14, with a teaser trailer taking the form of a comedy skit . The first single, "The Way You Used to Do", was released the following day . The War on Drugs' A Deeper Understanding was nominated for Best Rock Album . The album received widely positive reviews and performed well commercially, topping Billboard's Top Alternative Albums and Top Rock Albums The final track, "Villains of Circumstance", was first premiered by Homme in 2014 at an acoustic concert for James Lavelle's Meltdown Festival . "The Evil Has Landed" was released as a single on August 10, 2017 . Villains (Queens of the Stone Age album)'s most popular songs include The Way You Used to Do. It had a contribution from notable artists like Liam Lynch. It had an affiliation to bands - Queens of the Stone Age. Its music is influenced by genres - alternative rock hard rock dance-rock stoner rock boogie rock.

tabs and chords, guitar tabs, music transcription, music technology, deep learning, music information retrieval, transcribe into tabs & chords, chordify, music renditions, songsterr, reverbnation, tabulature, bollywood chords, ultimate guitar, yousician, guitar lessons, acoustic guitar, electric guitar, guitar tuner, 911 tabs