Guitar Tabs for The Ending Song Of Hercules 3

(/) Slide Up  (\) Slide Down  (h) Hammer On  (p) Pull Off  (b) Bend (r) Release (v) Vibrato (x) Muted

Tabs for Song : 
BPM : 125

Song lyrics here 
E|-----------------------------------------------------------------------------------------------------------------------
B|-----------3--3--3--3-----------------------------------------------------6--6--6--6--4--4--4--4-----------6--6--6--6--
G|--------------------------------------------------------------7--7--7--7--------------------------9-----8--------------
D|--4--4--4--------------6--6--6--6--3--3--3--3--3--8--8--8--8-----------------------------------------10----------------
A|-----------------------------------------------------------------------------------------------------------------------
E|-----------------------------------------------------------------------------------------------------------------------

E|--------------------------7-----------------------------------------------------------------------22-22-22-20-------------
B|-----------------------------7--6--6--6--------------------------13-13-13-13-13-------------20-20-------------20-20-20-20-
G|-----------------------------------------6--6--6--------------------------------------19-19-------------------------------
D|--------------------------------------------------7--7--7--7--7-----------------7--7--------------------------------------
A|--7--7--7--7--7--7--7--7--------------------------------------------------------------------------------------------------
E|--------------------------------------------------------------------------------------------------------------------------

E|-----------------------------1--0--1--0--1--------------------------------------------------10-10-------------------------
B|--------------------------1-----------------2--2--2--2--2--2--2--2--1--1--1-----------------------10-10-10----12-12-12-12-
G|--------------------------------------------------------------------------------------------------------------------------
D|--3--3--3--3--3--1--1--1--------------------------------------------------------5--5--------------------------------------
A|-----------------------------------------------------------------------------------------12-------------------------------
E|-----------------------------------------------------------------------------4--------12-------------------14-------------

E|--------------------------------------------------------------------------------------------------------------------------
B|--2-----2-----2-----2--2--2--2--2-----------------------------------------------------------------------------------------
G|-----2-----2-----2--------------------------------------------------------------------------------------------------------
D|--------------------------------------------------------------------------------------------------------------------------
A|--------------------------------------------------------------------------------------------------------------------------
E|-----------------------------------0--1--0--0--1--0--1--0--1--0--1--1--0--1--0--1--0--1--0--12-12-12-12-12-12-12-13-13-13-

Song lyrics here 
E|--------------------------------------------------------------------------------------------------------------------------
B|--------------------------------------------------------------------------------------------------------------------------
G|--------------------------------------------------------------------------------------------------------------------------
D|--------------------------------------------------------------------------------------------------------------------------
A|--------------------------------------------------------------------------------------------------------------------------
E|--0--1--0--1--0--1--0--1--0--1--0--1--0--1--0--1--2--3--4--5--6--7--8--9--10-11-12-13-14-15-16-17-18-19-20-21-22-22-22-22-

E|--------------------------------------------------------------------------------------------------------------------------
B|--------------------------------------------------------------------------------------------------------------------------
G|--------------------------------------------------------------------------------------------------------------------------
D|--------------------------------------------------------------------------------------------------------------------------
A|--0--1--2--3--4--5--6--7--8--9--10-11-12-13-14-15-16-17-18-19-20-21-22-21-20-19-18-17-16-15-14-13-12-11-10-9--8--7--6--5--
E|--------------------------------------------------------------------------------------------------------------------------

E|--------------------------------------------------------------------------------------------------------------------------
B|--------------------------------------------------------------------------------------------------------------------------
G|--------------------------------------------------------------------------------------------------------------------------
D|--0--1--2--3--4--5--6--7--8--9--10-11-12-13-14-15-16-17-18-19-20-21-22-21-20-19-18-17-16-15-14-13-12-11-10-9--8--7--6--5--
A|--------------------------------------------------------------------------------------------------------------------------
E|--------------------------------------------------------------------------------------------------------------------------

E|--------------------
B|--------------------
G|--0--1--2--3--4--5--
D|--------------------
A|--------------------
E|--------------------

E|--------------------------------------------------------------------------------------------------------
B|--------------------------------------------------------------------------------------------------------
G|--6--7--8--9--10-11-12-13-14-15-16-17-18-19-20-21-22-21-20-19-18-17-16-15-14-13-12-11-10-9--8--7--6--5--
D|--------------------------------------------------------------------------------------------------------
A|--------------------------------------------------------------------------------------------------------
E|--------------------------------------------------------------------------------------------------------

E|-----2--2--------------------------------------------------------------------------------------------------------------------------
B|--0-----------1--2--3--4--5--6--7--8--9--10-11-12-13-14-15-16-17-18-19-20-21-22-21-20-19-18-17-16-15-14-13-12-11-10-9--8--7--6--5--
G|-----------0-----------------------------------------------------------------------------------------------------------------------
D|-----------------------------------------------------------------------------------------------------------------------------------
A|-----------------------------------------------------------------------------------------------------------------------------------
E|-----------------------------------------------------------------------------------------------------------------------------------

E|--0--1--2--3--4--5--6--7--8--9--10-11-12-13-14-15-16-17-18-19-20-21-22-21-20-19-18-17-16-15-14-13-12-11-10-9--8--7--6--5--
B|--------------------------------------------------------------------------------------------------------------------------
G|--------------------------------------------------------------------------------------------------------------------------
D|--------------------------------------------------------------------------------------------------------------------------
A|--------------------------------------------------------------------------------------------------------------------------
E|--------------------------------------------------------------------------------------------------------------------------

E|-----1--1--1--------------------------10----9--------5--5-----------------7-----------4--
B|--1--------------3-----------------8-----------------------------------------7--7--4-----
G|-----------------------5--3-----7--------------------------5--0--------3-----------------
D|--------------2-----3--------------------------6--9--------------10-10-------------------
A|-----------------------------------------------------------------------------------------
E|-----------------------------6-----------11----------------------------------------------

E|-----------------------------------------------------------------------------
B|-----------4-----------------7-----3--0--0--------------------------18-11-11-
G|--4--4--4--------------------------------------5-----9-----------14----------
D|--------------1--1--9--9--9-----8-----------0--------------13-14-------------
A|--------------------------------------------------8--------------------------
E|--------------------------------------------------------13-------------------

E|--------------------8--------------6--------------------------------8-----12-
B|--------------11-9-----------------------------------------------8-----------
G|--------------------------------6-----6-----7--7--------8--8-----------9-----
D|--10-10-10-10----------------7-----------5--------10-10-------8--------------
A|-----------------------9--8--------------------------------------------------
E|-----------------------------------------------------------------------------

E|-----------------------------------------------------5--------------------------------------------------------2-----
B|--------------------------------------------------------------------------------------------5--------------18-------
G|-----------6--7-----------7-----4-----------5--------------------------------------6--8--------15-8-----4--------12-
D|-----2--3--------8-----------9-----17-8--16-------------10-13-11-8--10-9--11----12-------11-------------------------
A|--2-----------------4--------------------------8-----------------------------8-----------------------11-------------
E|-----------------------8--------------------------16----------------------------------------------------------------

E|--------------------------------------------------------------------------------------------------------------------
B|-----------6-----------------7--------------------------------------------------------------------------------------
G|--------14----16----16-10-13----12----8-----------------------------------------------------------------------------
D|--7--9--------------------------------------------------------------------------------------------7--9--------------
A|-----------------10----------------9-----------10-14----13-9--15-5--16-13-13-------1--5--------1-----------8-----5--
E|-----------------------------------------11-12-------5-----------------------4--7--------4--6-----------6-----3-----

E|--------------------------7-----------------------------------------------------------------16----------16-19-------
B|--------------7--------------12-------------10-9--5--13-10-16-13----------14-------15-14-17----18-14-18-------------
G|-----------12----13-8--------------------13----------------------17-12-17-------------------------------------5--13-
D|--5--12-7-----------------------------5--------------------------------------18-17----------------------------------
A|-----------------------11-------7--11-------------------------------------------------------------------------------
E|--------------------------------------------------------------------------------------------------------------------

E|--------------------------------------------------------------------------------------------6--------14----15-------------
B|--------17----17----14----13-16-------------------9-----------------------------------2-----------8-----10----------------
G|--4--13----14----12----16-------12----11----10----------8-----------6-----5-----3--------10----12-------------11----11----
D|-----------------------------------------------------------11-7--------10----------------------------------------------15-
A|-----------------------------------15----14----13----12----------10----------8-----7-----------------------------15-------
E|--------------------------------------------------------------------------------------------------------------------------

E|-----------------------------------------------------------------------------------------------------------------16-------
B|--------------------------------------------6-----------------------------------------------------------------4-----------
G|-----------11-10----6--5-----------5--------------------------------------6--------------------------------------------10-
D|--5-----6--------7--------5--12-12----7--11-------------5-----12----5--12----5-----------7--5--11-11-------6--------------
A|-----10----------------------------------------7--7--11----11----7--------------5--6--11-------------6--------------8-----
E|--------------------------------------------------------------------------------------------------------9-----------------

E|--------------------------------------------------------------------------------------------------------------------------
B|--16-16-16-16-16-16-16-16-16-16-16-16-16-16-16-16-------------------------------------------------------------------------
G|--------------------------------------------------14-14-14-14-14-14-14-14-14-14-11-11-11-11-11-11-11-11-------------------
D|--------------------------------------------------------------------------------------------------------------------------
A|--------------------------------------------------------------------------------------------------------9--9--9--9--9--9--
E|--------------------------------------------------------------------------------------------------------------------------

E|--------------------------------------------------------------------------------------------------------------------------
B|--12-12-12-12-12-12-12-13-13-13----------------------------------------------------------------------6--6--6--6--6--4--4--
G|--------------------------------13----------------------------------6--6--6-----------------------5-----------------------
D|-----------------------------------------------10-10-10-10-10-10-8-----------5--5--5--5--4--4--4--------------------------
A|-----------------------------------11-11-11-11----------------------------------------------------------------------------
E|--------------------------------------------------------------------------------------------------------------------------

E|--------------------------------------------------------------------------------------------------------------------------
B|--------------------------------------------------------------------------------------------------8-----------------------
G|--9--9--9--------------14-14-------14----7--7--7--7--7-----13----13-13----13-------7-----------------------8--8--8--8-----
D|-----------9--9--14-14-------14-14----7-----------------7-----13-------13----7--7-----7--------13----12----------------8--
A|--------------------------------------------------------------------------------------------8-----------8-----------------
E|-----------------------------------------------------------------------------------------12-------------------------------

E|--------------------------------------------------------------------------------------------------------------------------
B|-----------------------12-12-------------------------------------6--------------------------------------------17----------
G|-----------------5--5-----------------6--11-------------11----------12----------------------16-------------------5--5-----
D|--6--6--13-13-13-------------------------------7-----7-----------------------7--11-7--14-15-------13-13----13----------11-
A|-----------------------------6--6--11-------7-----11-------7-----------7-----------------------14-------6-----------------
E|--------------------------------------------------------------11----------11----------------------------------------------

E|--------------------5--5--------------------------------------------------------------------------------------------------
B|-----------14----5--------12-12-------------------------------------------4-----------------------------------------3--3--
G|--5--14-6-----6-----------------12-------------6--6--4--16-------12-6--14----------------14-6-----4--14-6--6--------------
D|--------------------------------------7--13-13-------------6-----------------16-6--12----------16-------------6--3--------
A|-----------------------------------7--------------------------7-----------------------7-----------------------------------
E|--------------------------------------------------------------------------------------------------------------------------

E|--------------------------------------------------------------------------------------------------------------------------
B|-----------10----10-------------------------------------------------------------------------------------------------------
G|-----10-------10----10-10-10-10-10-10-10-10-10-10----------------------------------------------------6--6--6--------------
D|--10----10-------------------------------------------------------------------------------------6--6-----------6--6--6--6--
A|-----------------------------------------------------------12-12-12-12-12-12-12-12-12-12-12-12----------------------------
E|--------------------------------------------------11-11-11----------------------------------------------------------------

E|--------------------------------------------------------------------------------------------------------------------------
B|--------------------------------------------------------------------------------------------------------------------------
G|--5--13-6--------4--4--4-----4--16-------------------4--4--4--4--16-16-16----5--5-----3--------------4--------4--5--------
D|-----------14-14-------------------5-----15-15----4-----------------------------------------------4--------4-----------13-
A|--------------------------------------5-----------------------------------------------------------------------------------
E|--------------------------------------------------------------------------------------------------------------------------

E|--------------------------------------------------------------------------------------------------------------------------
B|--------------------------------------------------------------------------------------------9-----------------------------
G|--------------------------------------------------------------------2-----------------------------------------------9-----
D|--5--------------------------------9--------------------------------------------------------------------------------------
A|--------------------------------------------------------------------------------------------------------------------------
E|--------------------------------------------------------------------------------------------------------------------------

E|--------------------------------------------------------------------------------------------------------------------------
B|--7--------------------------------------------------------13----------------------------------18-------6-----------------
G|--------------------------------14-------19-------------------------8--------------------------------------------11-------
D|--------------12-------3--------------------------3--------------------------14-------17----------------------------------
A|--------------------------------------------------------------------------------------------------------------------------
E|--------------------------------------------------------------------------------------------------------------------------

E|-----------------------------------------------------------------------------------------------------------------------22-
B|--8-----------------------------------------------------1--------------------------21-------------------------22----------
G|--------------------------------------------------------------------------------------------------------------------------
D|-----------------------------9--------------------------------------------------------------------------------------------
A|--------------------------------------------------------------------------------------------------------------------------
E|--------------------------------------------------------------------------------------------------------------------------

E|-----x--x-----------x--x--x-----------------x--x-----------------x-----------------x--------19-19-------x-----------20----x--22-22-------21----x--21-19-20-19----
B|-----x--x-----12----x--x--x--------------13-x--x-----------------x--13-------------x--------------20-20-x--------------21-x--------20-21----20-x--------------19-
G|-----x--x-----------x--x--x-----13----10----x--x-----11-13-------x--------13-11-13-x--------------------x--18-20-21-------x--------------------x-----------------
D|--14-x--x--------14-x--x--x--11----14-------x--x-----------10----x-----15----------x-----17-------------x-----------------x--------------------x-----------------
A|-----x--x--10-------x--x--x-----------------x--x--14-------------x-----------------x--15----------------x-----------------x--------------------x-----------------
E|-----x--x-----------x--x--x-----------------x--x-----------------x-----------------x--------------------x-----------------x--------------------x-----------------

E|-----x--x--x--x--x--x--x--x--x--x--x--x--x--x--x--x--------x--x--x--x--x--x--x--x--------------x--x--x--x--x--x--x--x--x--
B|-----x--x--x--x--x--x--x--x--x--x--x--x--x--x--x--x--------x--x--x--x--x--x--x--x--13-13-13-13-x--x--x--x--x--x--x--x--x--
G|-----x--x--x--x--x--x--x--x--x--x--x--x--x--x--x--x--------x--x--x--x--x--x--x--x--------------x--x--x--x--x--x--x--x--x--
D|-----x--x--x--x--x--x--x--x--x--x--x--x--x--x--x--x--------x--x--x--x--x--x--x--x--------------x--x--x--x--x--x--x--x--x--
A|--12-x--x--x--x--x--x--x--x--x--x--x--x--x--x--x--x--12-12-x--x--x--x--x--x--x--x--------------x--x--x--x--x--x--x--x--x--
E|-----x--x--x--x--x--x--x--x--x--x--x--x--x--x--x--x--------x--x--x--x--x--x--x--x--------------x--x--x--x--x--x--x--x--x--

E|-----------x--x--x--x--x--x--x--x--x--x--x--x--x--x--x--x--x--x--x--x--x--------------------------x--x--x--x--x--x--x--x--\
B|-----------x--x--x--x--x--x--x--x--x--x--x--x--x--x--x--x--x--x--x--x--x--13-13-13-13-13-13-13-13-x--x--x--x--x--x--x--x--
G|-----------x--x--x--x--x--x--x--x--x--x--x--x--x--x--x--x--x--x--x--x--x--------------------------x--x--x--x--x--x--x--x--
D|-----------x--x--x--x--x--x--x--x--x--x--x--x--x--x--x--x--x--x--x--x--x--------------------------x--x--x--x--x--x--x--x--
A|--14-14-14-x--x--x--x--x--x--x--x--x--x--x--x--x--x--x--x--x--x--x--x--x--------------------------x--x--x--x--x--x--x--x--
E|-----------x--x--x--x--x--x--x--x--x--x--x--x--x--x--x--x--x--x--x--x--x--------------------------x--x--x--x--x--x--x--x--

E|--------------------------------------------------------------------9--9--------------------------------------------\
B|--0--3-----------------------------------------------------------------------------------------------5--------------
G|--------------------------------------------------------7--7--------------7--------5--5-----------------4--3--3--2--
D|--------2--2--2--2--------------------3--3--3-----------------8--8-----------7--7-----------------------------------
A|-----------------------------------------------6--6--6--------------------------------------------------------------
E|--------------------------------------------------------------------------------------------------------------------

E|--------------------------------------------------------------------------------------------------------------------
B|-----------------------------------5--5--5--------------------------------------------------------------------7--7--
G|--------------------5--5--------------------3--3--------3--3--3--2--3--3--3--3--------------------------------------
D|--6--6--6--6--6--6--------------------------------4--4--------------------------------------4--4--5-----------------
A|--------------------------------------------------------------------------------------3--3--------------------------
E|--------------------------------------------------------------------------------------------------------------------

E|-----------------------------------------------------------------22-22-22-22----------------------------------------
B|--------4--4--4--4-----------------5--------------------------------------------------22-22-22-------------------16-
G|-----------------------3--3--4--4-----5--5--6-----------------------------------------------------------------------
D|--3--3--------------6-----------------------------------------------------------------------------------------------
A|--------------------------------------------------------------1-----------------------------------------------------
E|-----------------------------------------------0--0--1--1--1--------------------------------------------------------

E|-----------------------------------------------------------------------------------------------------------------
B|-----------------------12-11-------9--7--6--------1--------------------------------------------------------------
G|--9--9--9-----------12-------11-11----------6--4-----------------------------------------------------------10-10-
D|-----------11-11-12----------------------------------1--7--7--7--7--7--10-11-------------------------------------
A|-----------------------------------------------------------------------------------------------------------------
E|-----------------------------------------------------------------------------------------------------------------


---E|-----------------------------------------------------------------------------------------------------------------
B|--------2-----------------------------------------------5-----------------------------------------3--3--3--------
G|--------------------------------------------------------------------12-12-8-----7--7--7--6-----4-----------5--6--
D|-----2-----2-----5--5--5--5--5--5--5--5--5--5--5--5--5--------9--9-----------8--------------5--------------------
A|--2-----------4--------------------------------------------9-----------------------------------------------------
E|-----------------------------------------------------------------------------------------------------------------




E|-----------------------------------------------------------------------------------------------------------------
B|-----0-----------------------------------------------------------10-9-----------------------10-------------------
G|-----------3--3--4-----------8--8--10-11-11-12-12-12-12-12-13-13-------9--9--9--9--9--9--9-----------------------
D|--3-----1-----------5--7--7--------------------------------------------------------------------4--4--4--4--4--4--
A|-----------------------------------------------------------------------------------------------------------------
E|-----------------------------------------------------------------------------------------------------------------



E|--------------------------------------------------11----22-------------------------------0--------------1--1-----1--
B|-----------------7--------------------8--8--7--7--------------------------------------------------------------------
G|-----------------------8--8--8--8--10----------------12-------------9--7--------------2-----------------------------
D|--1--------4--4-----7--------------------------------------9--9--9--------5--4--4--4--------------------------------
A|-----1--1-----------------------------------------------------------------------------------------0-----------------
E|--------------------------------------------------------------------------------------------0--0-----1--------1-----

E|-----------------------------------------------------------------------------------------------------------------6--
B|--------------------------------------------------14-11----------------------------------10-------------------9-----
G|--------------------------------------10----14-10----------9-----------------------8--8--------11-12----13----------
D|--------------3--------------------12----13-------------11----7--7--7--7--7--7--7--------------------13----10-------
A|--0--2--2--3--------------8--9--11----------------------------------------------------------10----------------------
E|-----------------4--5--5--------------------------------------------------------------------------------------------

E|--------------5-----------------------------------
B|--------4--4-----7--------------------------------
G|-----1-----------------9--9--9--9--6--8--7--------
D|--0-----------------8-----------------------------
A|--------------------------------------------------
E|--------------------------------------------------

E|--------------------------------------------------------------------------------------------------------------------------------------------------------
B|--------2-----------5-----------------------------------------------------------------10----------------------------------------------------------------
G|-----------4--4--4-----6--6--6--6--6--6--5-----------------------------------------------9--------------------------------------------------------------
D|-----2--------------------------------------5--5--5--5--5--5--5--5--5--5--5--5--5--5--------12-12-12-12-------------------------------------------------
A|--------------------------------------------------------------------------------------------------------------------------------------------------------
E|--------------------------------------------------------------------------------------------------------------------------------------------------------

E|-----x--x--x--x--x--x--x--x--x--x--x--x--x--x--x--x--x--x--x--x--x--x--x--x--x--x--x--x--x--x--x--x--x--
B|-----x--x--x--x--x--x--x--x--x--x--x--x--x--x--x--x--x--x--x--x--x--x--x--x--x--x--x--x--x--x--x--x--x--
G|-----x--x--x--x--x--x--x--x--x--x--x--x--x--x--x--x--x--x--x--x--x--x--x--x--x--x--x--x--x--x--x--x--x--
D|-----x--x--x--x--x--x--x--x--x--x--x--x--x--x--x--x--x--x--x--x--x--x--x--x--x--x--x--x--x--x--x--x--x--
A|-----x--x--x--x--x--x--x--x--x--x--x--x--x--x--x--x--x--x--x--x--x--x--x--x--x--x--x--x--x--x--x--x--x--
E|-----x--x--x--x--x--x--x--x--x--x--x--x--x--x--x--x--x--x--x--x--x--x--x--x--x--x--x--x--x--x--x--x--x--

E|-----x--x--x--x--x--x--x--x--x--x--x--x--x--x--x--x--x--x--x--x--x--x--x--x--x--x--x--x--x--x--x--x--x--
B|-----x--x--x--x--x--x--x--x--x--x--x--x--x--x--x--x--x--x--x--x--x--x--x--x--x--x--x--x--x--x--x--x--x--
G|-----x--x--x--x--x--x--x--x--x--x--x--x--x--x--x--x--x--x--x--x--x--x--x--x--x--x--x--x--x--x--x--x--x--
D|-----x--x--x--x--x--x--x--x--x--x--x--x--x--x--x--x--x--x--x--x--x--x--x--x--x--x--x--x--x--x--x--x--x--
A|-----x--x--x--x--x--x--x--x--x--x--x--x--x--x--x--x--x--x--x--x--x--x--x--x--x--x--x--x--x--x--x--x--x--
E|-----x--x--x--x--x--x--x--x--x--x--x--x--x--x--x--x--x--x--x--x--x--x--x--x--x--x--x--x--x--x--x--x--x--

E|-----x--x--x--x--x--x--x--x--x--x--x--x--x--x--x--x--x--x--x--x--x--x--x--x--x--x--x--x--x--x--x--x--
B|-----x--x--x--x--x--x--x--x--x--x--x--x--x--x--x--x--x--x--x--x--x--x--x--x--x--x--x--x--x--x--x--x--
G|-----x--x--x--x--x--x--x--x--x--x--x--x--x--x--x--x--x--x--x--x--x--x--x--x--x--x--x--x--x--x--x--x--
D|-----x--x--x--x--x--x--x--x--x--x--x--x--x--x--x--x--x--x--x--x--x--x--x--x--x--x--x--x--x--x--x--x--
A|-----x--x--x--x--x--x--x--x--x--x--x--x--x--x--x--x--x--x--x--x--x--x--x--x--x--x--x--x--x--x--x--x--
E|-----x--x--x--x--x--x--x--x--x--x--x--x--x--x--x--x--x--x--x--x--x--x--x--x--x--x--x--x--x--x--x--x--

E|-----x--x--x--x--x--x--x--x--x--x--x--x--x--x--x--x--x--x--x--x--x--x--x--x--x--x--x--x--x--x--x--x--
B|-----x--x--x--x--x--x--x--x--x--x--x--x--x--x--x--x--x--x--x--x--x--x--x--x--x--x--x--x--x--x--x--x--
G|-----x--x--x--x--x--x--x--x--x--x--x--x--x--x--x--x--x--x--x--x--x--x--x--x--x--x--x--x--x--x--x--x--
D|-----x--x--x--x--x--x--x--x--x--x--x--x--x--x--x--x--x--x--x--x--x--x--x--x--x--x--x--x--x--x--x--x--
A|-----x--x--x--x--x--x--x--x--x--x--x--x--x--x--x--x--x--x--x--x--x--x--x--x--x--x--x--x--x--x--x--x--
E|-----x--x--x--x--x--x--x--x--x--x--x--x--x--x--x--x--x--x--x--x--x--x--x--x--x--x--x--x--x--x--x--x--

E|-----------------------------------------------------------------------------------------------------
B|--------------------------------------------------------------------------------8-----------9--9-----
G|--6-----6--6--6--10-10-10-10-10-10-10-10-10-10-10-10-7--7--7--7--7--7--7--9--------8--9--8--------10-
D|-----7-----------------------------------------------------------------------7-----------------------
A|-----------------------------------------------------------------------------------------------------
E|-----------------------------------------------------------------------------------------------------

E|-----------------------------------------------------------------------------------------21-22-21-22--
B|--------------------------------4--------------------------------------------------------------------------------------
G|--0--0-----1--1--3--3--------------5--5--6--------5--------------------------------------------------------------------
D|--------0--------------5--------------------4--5-----------------------------------------------------------------------
A|-----------------------------------------------------5--6-----------------------0--0-----------------------------------
E|-----------------------------------------------------------5--4--3--3--2--2--1--------0--------------------------------




E|-----------------------------------------------------------------------------------------------------
B|-----------------------------------------------------------------------------4--4--4--4--4--4--4--5--
G|-----4--4-----4--6-----------5--5--6-----6-----------7-----7--------------5--------------------------
D|--4--------6-----------7--7-----------6--------7--7--------------7--8--8-----------------------------
A|--------------------6-----------------------------------7--------------------------------------------
E|--------------------------------------------7-----------------7--------------------------------------

E|-----------------x--x--x-----------------------------------------------------7--7--5--5--------------
B|-----------4-----x--x--x--10-10-8-----------------------------7--7--7--5--5--------------------------
G|--5--5--5--------x--x--x-----------------5--7--7-----------7-----------------------------------------
D|--------------4--x--x--x-----------8--8-----------------7--------------------------------8--8--8--11-
A|-----------------x--x--x-----------------------------7-----------------------------------------------
E|-----------------x--x--x--------------------------7--------------------------------------------------

E|-----------------------------------------------------------------------------------------------------
B|--------------------------------8--------4--------------------------5-----------------7--3--------7--
G|--2--------------------------------10-10----4-----------------7--7-----4--4--7--5--6--------3--3-----
D|--------4--5--5--------------8-----------------6--6--------6-----------------------------------------
A|-----------------8-----------------------------------------------------------------------------------
E|-----------------------------------------------------------------------------------------------------

E|--------------------------0-----------------------------11-10-------------------------------------
B|-----------4--------0--------------------------11-11-6--------------------------------------------
G|-----6--6-----9--9-----0--------------------9-----------------11----------------------------------
D|-----------------------------7--7--8--9--9--------------------------------17-18-18-22-------------
A|--4--------------------------------------------------------------12-13-14-------------------0--22-
E|--------------------------------------------------------------------------------------0--22-------

E|--------x--x--x-----------x--x--x--x--x--x--x--x-----------------8--------------------------------
B|--------x--x--x-----------x--x--x--x--x--x--x--x--13----------------8--------9--------------------
G|--------x--x--x--13-13-13-x--x--x--x--x--x--x--x--------------11----------------9--------------8--
D|--3--3--x--x--x-----------x--x--x--x--x--x--x--x-----12-12-11----------------------9-----7--8-----
A|--------x--x--x-----------x--x--x--x--x--x--x--x--------------------------------------8-----------
E|--------x--x--x-----------x--x--x--x--x--x--x--x-----------------------10-10----------------------




E|-----------------5-----------------------------15----------------------------19-------------------
B|--------------4-----6-----------------------14----16----------------------20----18----------------
G|-----------3-----------7-----------------13----------17----------------21----------17-------------
D|--------2-----------------8-----------12----------------18----------22----------------16----------
A|-----1-----------------------9-----11----------------------19----21----------------------15----13-
E|--0-----------------------------10----------------------------20----------------------------14----



E|-----------------------------------------------------------------------------------------------------------
B|-----------------------------------------------------------------------------------------------------------
G|-----------------------------------6--------8--8-----------------------------------------------------------
D|--1--3--1--4--4--------------5-----------------------------------------------------------------------------
A|-----------------5--5--5--5-----6-----6--8-----------------------------------------------------------------
E|-----------------------------------------------------------------------------------------------------------


E|--------------------------------------------------------------------------------------------------------
B|--------------------------------------9--9-----------------------------------7--6--4--------------------
G|--------------------------------------------------------------------------------------3--2--------------
D|-----------------------5--5--4--4-----------------------------------10----11----------------2-----------
A|--0--1--1--1--1--1--1--------------8-----------------------------8-----11-------------------------------
E|-----------------------------------------------------------------------------------------------0--------
tabs and chords, guitar tabs, music transcription, music technology, deep learning, music information retrieval, transcribe into tabs & chords, chordify, music renditions, songsterr, reverbnation, tabulature, bollywood chords, ultimate guitar, yousician, guitar lessons, acoustic guitar, electric guitar, guitar tuner, 911 tabs