The Decent - Clufflebot - Guitar Tabs

Track 1
    
                                                                                                                                                                                                                                                                                                                                                                                                                                                                                                                                                                                                                                                                                                                                                                                                                                                                                                                                                                                                                                                                                                                                                                                              
E|-------------------------|-----------------------|
B|-------------------------|-----------------------|
G|-------------------------|-----------------------|
D|-----------2-----------2-|---------2-----------2-|
A|-----2-----------2-------|---3-----------3-------|
E|--0-----0-----0-----0----|0-----0-----0-----0----|

    
                                                                                                                                                                                                                                                                                                                                                                                                                                                                                                                                                                                                                                                                                                                                                                                                                                                                                                                                                                                                                                                                                                                                                                                              
E|-------------------------|-----------------------|
B|-------------------------|-----------------------|
G|-------------------------|-----------------------|
D|-----------2-----------2-|-----------------------|
A|-----2-----------2-------|---0-------------------|
E|--0-----0-----0-----0----|0-----0--3--0--1--0--0-|

    
                                                                                                                                                                                                                                                                                                                                                                                                                                                                                                                                                                                                                                                                                                                                                                                                                                                                                                                                                                                                                                                                                                                                                                                              
E|-------------------------|-----------------------|
B|-------------------------|-----------------------|
G|-------------------------|-----------------------|
D|-----------2-----------2-|---------2-----------2-|
A|-----2-----------2-------|---3-----------3-------|
E|--0-----0-----0-----0----|0-----0-----0-----0----|

    
                                                                                                                                                                                                                                                                                                                                                                                                                                                                                                                                                                                                                                                                                                                                                                                                                                                                                                                                                                                                                                                                                                                                                                                              
E|-------------------------|-----------------------|
B|-------------------------|-----------------------|
G|-------------------------|-----------------------|
D|-----------2-----------2-|-----------------------|
A|-----2-----------2-------|---0-------------------|
E|--0-----0-----0-----0----|0-----0--3--0--1--0--0-|

    
                                                                                                                                                                                                                                                                                                                                                                                                                                                                                                                                                                                                                                                                                                                                                                                                                                                                                                                                                                                                                                                                                                                                                                                              
E|-------------------------|-----------------------|
B|-------------------------|-----------------------|
G|-------------------------|-----------------------|
D|-----------2-----------2-|---------2-----------2-|
A|-----2-----------2-------|---3-----------3-------|
E|--0-----0-----0-----0----|0-----0-----0-----0----|

    
                                                                                                                                                                                                                                                                                                                                                                                                                                                                                                                                                                                                                                                                                                                                                                                                                                                                                                                                                                                                                                                                                                                                                                                              
E|-------------------------|-----------------------|
B|-------------------------|-----------------------|
G|-------------------------|-----------------------|
D|-----------2-----------2-|-----------------------|
A|-----2-----------2-------|---0-------------------|
E|--0-----0-----0-----0----|0-----0--3--0--1--0--0-|

    
                                                                                                                                                                                                                                                                                                                                                                                                                                                                                                                                                                                                                                                                                                                                                                                                                                                                                                                                                                                                                                                                                                                                                                                              
E|-------------------------|-----------------------|
B|-------------------------|-----------------------|
G|-------------------------|-----------------------|
D|-----------2-----------2-|---------2-----------2-|
A|-----2-----------2-------|---3-----------3-------|
E|--0-----0-----0-----0----|0-----0-----0-----0----|

    
                                                                                                                                                                                                                                                                                                                                                                                                                                                                                                                                                                                                                                                                                                                                                                                                                                                                                                                                                                                                                                                                                                                                                                                              
E|-------------------------|-----------------------------|
B|-------------------------|-----------------------------|
G|-------------------------|-----------------------------|
D|-----------2-----------2-|-----------------------------|
A|-----2-----------2-------|------0-----3--------1-------|
E|--0-----0-----0-----0----|0--0-----0-----0--0-----0--3-|

    
                                                                                                                                                                                                                                                                                                                                                                                                                                                                                                                                                                                                 
E|-------------------------|
B|-------------------------|
G|-------------------------|
D|-------------------------|
A|-------------------------|
E|--0-----0--0--0--0-------|

    
                                                                                                                                                                                                                                                                                                                                                                                                                                                                                                                                                                                                                                                                                                                                                                                                                                                                                                                                                                                                                                                                                                                                                                                              
E|-------------------------|-----------------------|
B|-------------------------|-----------------------|
G|-------------------------|-----------------------|
D|-------------------------|-----------------------|
A|-------------------------|-----------------------|
E|--3-----3--3--3--3-------|5-----5--5--5--5-------|

    
                                                                                                                                                                                                                                                                                                                                                                                                                                                                                                                                                                                                                                                                                                                                                                                                                                                                                                                                                                                                                                                                                                                                                                                              
E|-------------------------------|-----------------------|
B|-------------------------------|-----------------------|
G|-------------------------------|-----------------------|
D|-------------------------------|-----------------------|
A|--------------3--3--3--3--3--3-|------1--------1-----1-|
E|--0--0--0----------------------|0--0-----0--0-----0----|

    
                                                                                                                                                                                                                                                                                                                                                                                                                                                                                                                                                                                                                                                                                                                                                                                                                                                                                                                                                                                                                                                                                                                                                                                              
E|-------------------------|-----------------------|
B|-------------------------|-----------------------|
G|-------------------------|-----------------------|
D|-------------------------|-----------------------|
A|--------3--------3-----3-|------5--------5-----5-|
E|--3--3-----3--3-----3----|5--5-----5--5-----5----|

    
                                                                                                                                                                                                                                                                                                                                                                                                                                                                                                                                                                                                                                                                                                                                                                                                                                                                                                                                                                                                                                                                                                                                                                                              
E|-------------------------------------------|-----------------------|
B|-------------------------------------------|-----------------------|
G|-------------------------------------------|-----------------------|
D|-------------------------------------------|---------2-----------2-|
A|-------------------------------------------|---2-----------2-------|
E|--0--0--0--0--0--0--0--1--3--5--3--1--0--0-|0-----0-----0-----0----|

    
                                                                                                                                                                                                                                                                                                                                                                                                                                                                                                                                                                                                                                                                                                                                                                                                                                                                                                                                                                                                                                                                                                                                                                                              
E|-------------------------|-----------------------|
B|-------------------------|-----------------------|
G|-------------------------|-----------------------|
D|-----------2-----------2-|---------2-----------2-|
A|-----3-----------3-------|---2-----------2-------|
E|--0-----0-----0-----0----|0-----0-----0-----0----|

    
                                                                                                                                                                                                                                                                                                                                                                                                                                                                                                                                                                                                 
E|-------------------------------|
B|-------------------------------|
G|-------------------------------|
D|-------------------------------|
A|--------0-----3--------1-------|
E|--0--0-----0-----0--0-----0--3-|
tabs and chords, guitar tabs, music transcription, music technology, deep learning, music information retrieval, transcribe into tabs & chords, chordify, music renditions, songsterr, reverbnation, tabulature, bollywood chords, ultimate guitar, yousician, guitar lessons, acoustic guitar, electric guitar, guitar tuner, 911 tabs