The Day I Met You - Lillian Axe - Guitar Tabs

Track 1
    
                                                                                                                                                                                                                                                                                                                                                                                                                                                                                                                                                                                                 
E|-------------------------|
B|--------3-----------3----|
G|-----0-----0-----0-----0-|
D|--5-----------5----------|
A|-------------------------|
E|-------------------------|

    
                                                                                                                                                                                                                                                                                                                                                                                                                                                                                                                                                                                                                                                                                                                                                                                                                                                                                                                                                                                                                                                                                                                                                                                              
E|-------------------------|-----------------------|
B|--------3-----------3----|------3-----------3----|
G|-----0-----0-----0-----0-|---0-----0-----0-----0-|
D|--5-----------5----------|5-----------4----------|
A|-------------------------|-----------------------|
E|-------------------------|-----------------------|

    
                                                                                                                                                                                                                                                                                                                                                                                                                                                                                                                                                                                                                                                                                                                                                                                                                                                                                                                                                                                                                                                                                                                                                                                              
E|-------------------------|------------0----------|
B|--------3-----------3----|------1--------1-------|
G|-----0-----0-----0-----0-|---------0--------0----|
D|--5-----------4----------|---2-----------------2-|
A|-------------------------|3----------------------|
E|-------------------------|-----------------------|

    
                                                                                                                                                                                                                                                                                                                                                                                                                                                                                                                                                                                                                                                                                                                                                                                                                                                                                                                                                                                                                                                                                                                                                                                              
E|--------------0----------|-----------------------|
B|--------3--------3-------|------3-----------3----|
G|-----2-----2--------2----|---0-----0-----0-----0-|
D|--0--------------------0-|5-----------4----------|
A|-------------------------|-----------------------|
E|-------------------------|-----------------------|

    
                                                                                                                                                                                                                                                                                                                                                                                                                                                                                                                                                                                                                                                                                                                                                                                                                                                                                                                                                                                                                                                                                                                                                                                              
E|-------------------------|------------0----------|
B|--------3-----------3----|------1--------1-------|
G|-----0-----0-----0-----0-|---------0--------0----|
D|--2-----------0----------|---2-----------------2-|
A|-------------------------|3----------------------|
E|-------------------------|-----------------------|

    
                                                                                                                                                                                                                                                                                                                                                                                                                                                                                                                                                                                                                                                                                                                                                                                                                                                                                                                                                                                                                                                                                                                                                                                              
E|--------------0----------|------------7----------|
B|--------3--------3-------|---------------8-------|
G|-----2-----2--------2----|---9-----9--------9----|
D|--0--------------------0-|------9--------------0-|
A|-------------------------|7----------------------|
E|-------------------------|-----------------------|

    
                                                                                                                                                                                                                                                                                                                                                                                                                                                                                                                                                                                                                                                                                                                                                                                                                                                                                                                                                                                                                                                                                                                                                                                              
E|--------------0----------|---------------0-------|
B|--------4--------4-------|------1-----3-----3----|
G|-----4-----4--------4----|---------0-----------0-|
D|-----------------------0-|---2-------------------|
A|--2----------------------|3----------------------|
E|-------------------------|-----------------------|

    
                                                                                                                                                                                                                                                                                                                                                                                                                                                                                                                                                                                                 
E|-------------------------|
B|--------3-----------0----|
G|-----------0-----2-----0-|
D|-------------------------|
A|-----2-------------------|
E|--3-----------2----------|

    
                                                                                                                                                                                                                                                                                                                                                                                                                                                                                                                                                                                                                                                                                                                                                                                                                                                                                                                                                                                                                                                                                                                                                                                              
E|--------------0----------|------------------0----|
B|-----------------0-------|------1--------------3-|
G|-----------0--------0----|---------0-----2-------|
D|--------2--------------0-|---2--------0----------|
A|-----2-------------------|3----------------------|
E|--0----------------------|-----------------------|

    
                                                                                                                                                                                                                                                                                                                                                                                                                                                                                                                                                                                                                                                                                                                                                                                                                                                                                                                                                                                                                                                                                                                                                                                              
E|--------------0----------|------------0----------|
B|--------1--------1-------|------3--------3-------|
G|-----------0--------0----|---2-----2--------2----|
D|-----2-----------------2-|0--------------------0-|
A|--3----------------------|-----------------------|
E|-------------------------|-----------------------|

    
                                                                                                                                                                                                                                                                                                                                                                                                                                                                                                                                                                                                                                                                                                                                                                                                                                                                                                                                                                                                                                                                                                                                                                                              
E|-------------------------|-----------------------|
B|--------3-----------3----|------3-----------3----|
G|-----0-----0-----0-----0-|---0-----0-----0-----0-|
D|--5-----------5----------|5-----------5----------|
A|-------------------------|-----------------------|
E|-------------------------|-----------------------|

    
                                                                                                                                                                                                                                                                                                                                                                                                                                                                                                                                                                                                                                                                                                                                                                                                                                                                                                                                                                                                                                                                                                                                                                                              
E|--------------0----------|------------0----------|
B|-----------1-----1-------|------3--------3-------|
G|--------2-----------2----|---2-----2--------2----|
D|-----2-----------------2-|0--------------------0-|
A|--0----------------------|-----------------------|
E|-------------------------|-----------------------|

    
                                                                                                                                                                                                                                                                                                                                                                                                                                                                                                                                                                                                                                                                                                                                                                                                                                                                                                                                                                                                                                                                                                                                                                                              
E|--------------0----------|---------------0-------|
B|-----------------0-------|------1-----3-----3----|
G|-----------0--------0----|---------0-----------0-|
D|--------2--------------2-|---2-------------------|
A|-----2-------------------|3----------------------|
E|--0----------------------|-----------------------|

    
                                                                                                                                                                                                                                                                                                                                                                                                                                                                                                                                                                                                                                                                                                                                                                                                                                                                                                                                                                                                                                                                                                                                                                                              
E|-------------------------|------------0----------|
B|--------3-----------0----|---------------0-------|
G|-----------0-----2-----0-|---------0--------0----|
D|-------------------------|------2--------------0-|
A|-----2-------------------|---2-------------------|
E|--3-----------2----------|0----------------------|

    
                                                                                                                                                                                                                                                                                                                                                                                                                                                                                                                                                                                                                                                                                                                                                                                                                                                                                                                                                                                                                                                                                                                                                                                              
E|--------------0----------|------------0----------|
B|--------1--------1-------|------3--------3-------|
G|-----------0--------0----|---2-----2--------2----|
D|-----2-----------------2-|0--------------------0-|
A|--3----------------------|-----------------------|
E|-------------------------|-----------------------|

    
                                                                                                                                                                                                                                                                                                                                                                                                                                                                                                                                                                                                                                                                                                                                                                                                                                                                                                                                                                                                                                                                                                                                                                                              
E|-------------------------|-----------------------|
B|--------3-----------3----|------3-----------3----|
G|-----0-----0-----0-----0-|---0-----0-----0-----0-|
D|--5-----------5----------|4-----------4----------|
A|-------------------------|-----------------------|
E|-------------------------|-----------------------|

    
                                                                                                                                                                                                                                                                                                                                                                                                                                                                                                                                                                                                                                                                                                                                                                                                                                                                                                                                                                                                                                                                                                                                                                                              
E|-------------------------|-----------------------|
B|--------3-----------3----|------3-----------3----|
G|-----0-----0-----0-----0-|---0-----0-----0-----0-|
D|--2-----------2----------|4-----------4----------|
A|-------------------------|-----------------------|
E|-------------------------|-----------------------|

    
                                                                                                                                                                                                                                                                                                                                                                                                                                                                                                                                                                                                                                                                                                                                                                                                                                                                                                                                                                                                                                                                                                                                                                                              
E|-------------------------|-----------------------|
B|--------3-----------3----|------3-----------3----|
G|-----0-----0-----0-----0-|---0-----0-----0-----0-|
D|--5-----------5----------|4-----------4----------|
A|-------------------------|-----------------------|
E|-------------------------|-----------------------|

    
                                                                                                                                                                                                                                                                                                                                                                                                                                                                                                                                                                                                                                                                                                                                                                                                                                                                                                                                                                                                                                                                                                                                                                                              
E|-------------------------|-----------------------|
B|--------3-----------3----|------3-----------3----|
G|-----0-----0-----0-----0-|---0-----0-----0-----0-|
D|--2-----------2----------|0-----------0----------|
A|-------------------------|-----------------------|
E|-------------------------|-----------------------|

    
                                                                                                                                                                                                                                                                                                                                                                                                                                                                                                                                                                                                                                                                                                                                                                                                                                                                                                                                                                                                                                                                                                                                                                                              
E|-------------------------|-----------------------|
B|--------3-----------3----|------3-----------3----|
G|-----0-----0-----0-----0-|---0-----0-----0-----0-|
D|--5-----------4----------|2-----------0----------|
A|-------------------------|-----------------------|
E|-------------------------|-----------------------|

    
                                                                                                                                                                                                                                                                                                                                                                                                                                                                                                                                                                                                                                                                                                                                                                                                                                                                                                                                                                                                                                                                                                                                                                                              
E|--------------0----------|------------0----------|
B|--------1--------1-------|------3--------3-------|
G|-----------0--------0----|---2-----2--------2----|
D|-----2-----------------2-|0--------------------0-|
A|--3----------------------|-----------------------|
E|-------------------------|-----------------------|

    
                                                                                                                                                                                                                                                                                                                                                                                                                                                                                                                                                                                                                                                                                                                                                                                                                                                                                                                                                                                                                                                                                                                                                                                              
E|-------------------------|-----------------------|
B|--------3-----------3----|------3-----------3----|
G|-----0-----0-----0-----0-|---0-----0-----0-----0-|
D|--5-----------4----------|2-----------0----------|
A|-------------------------|-----------------------|
E|-------------------------|-----------------------|

    
                                                                                                                                                                                                                                                                                                                                                                                                                                                                                                                                                                                                                                                                                                                                                                                                                                                                                                                                                                                                                                                                                                                                                                                              
E|--------------0----------|------------0----------|
B|--------1--------1-------|------3--------3-------|
G|-----------0--------0----|---2-----2--------2----|
D|-----2-----------------2-|0--------------------0-|
A|--3----------------------|-----------------------|
E|-------------------------|-----------------------|

    
                                                                                                                                                                                                                                                                                                                                                                                                                                                                                                                                                                                                                                                                                                                                                                                                                                                                                                                                                                                                                                                                                                                                                                                              
E|--------------7----------|------------0----------|
B|-----------------8-------|------4--------4-------|
G|-----9-----9--------9----|---4-----4--------4----|
D|--------9--------------0-|---------------------0-|
A|--7----------------------|2----------------------|
E|-------------------------|-----------------------|

    
                                                                                                                                                                                                                                                                                                                                                                                                                                                                                                                                                                                                                                                                                                                                                                                                                                                                                                                                                                                                                                                                                                                                                                                              
E|-----------------0-------|-----------------------|
B|--------1-----3-----3----|------3-----------0----|
G|-----------0-----------0-|---------0-----2-----0-|
D|-----2-------------------|-----------------------|
A|--3----------------------|---2-------------------|
E|-------------------------|3-----------2----------|

    
                                                                                                                                                                                                                                                                                                                                                                                                                                                                                                                                                                                                                                                                                                                                                                                                                                                                                                                                                                                                                                                                                                                                                                                              
E|--------------0----------|------------0----------|
B|-----------------0-------|------1--------1-------|
G|-----------0--------0----|---------0--------0----|
D|--------2--------------0-|---2-----------------2-|
A|-----2-------------------|3----------------------|
E|--0----------------------|-----------------------|

    
                                                                                                                                                                                                                                                                                                                                                                                                                                                                                                                                                                                                                                                                                                                                                                                                                                                                                                                                                                                                                                                                                                                                                                                              
E|--------------0----------|-----------------------|
B|--------3--------3-------|------3-----------3----|
G|-----2-----2--------2----|---0-----0-----0-----0-|
D|--0--------------------0-|5-----------5----------|
A|-------------------------|-----------------------|
E|-------------------------|-----------------------|

    
                                                                                                                                                                                                                                                                                                                                                                                                                                                                                                                                                                                                                                                                                                                                                                                                                                                                                                                                                                                                                                                                                                                                                                                              
E|-------------------------|------------7----------|
B|--------3-----------3----|---------------8-------|
G|-----0-----0-----0-----0-|---9-----9--------9----|
D|--4-----------4----------|------9--------------0-|
A|-------------------------|7----------------------|
E|-------------------------|-----------------------|

    
                                                                                                                                                                                                                                                                                                                                                                                                                                                                                                                                                                                                                                                                                                                                                                                                                                                                                                                                                                                                                                                                                                                                                                                              
E|--------------0----------|---------------0-------|
B|--------4--------4-------|------1-----3-----3----|
G|-----4-----4--------4----|---------0-----------0-|
D|-----------------------0-|---2-------------------|
A|--2----------------------|3----------------------|
E|-------------------------|-----------------------|

    
                                                                                                                                                                                                                                                                                                                                                                                                                                                                                                                                                                                                                                                                                                                                                                                                                                                                                                                                                                                                                                                                                                                                                                                              
E|-------------------------|------------0----------|
B|--------3-----------0----|---------------0-------|
G|-----------0-----2-----0-|---------0--------0----|
D|-------------------------|------2--------------0-|
A|-----2-------------------|---2-------------------|
E|--3-----------2----------|0----------------------|

About One Night in the Temple : One Night in the Temple is the twelfth album by the American hard rock band Lillian Axe . It was recorded before an audience of 100 friends, family and fans at Sound Landing Studio, a still functioning Masonic Temple where the band had recorded four other albums . The album was released May 27, 2014 . It features live performances of their most popular songs intertwined with stories behind the songs . The album also features the original vocalist for Lillian Axe Johnny Vines on the songs "Misery Loves Company Blaze was inspired by the story of Tripp Roth, a toddler born in 2009 . Roth died shortly before the song's release in 2011 . Blaze wrote the track "Bow Your Head" It had a contribution from notable artists like One Night. It had an affiliation to bands - Lillian Axe,There. Its music is influenced by genres - hard rock , glam metal.

tabs and chords, guitar tabs, music transcription, music technology, deep learning, music information retrieval, transcribe into tabs & chords, chordify, music renditions, songsterr, reverbnation, tabulature, bollywood chords, ultimate guitar, yousician, guitar lessons, acoustic guitar, electric guitar, guitar tuner, 911 tabs