Guitar Tabs for The Dark Night

(/) Slide Up  (\) Slide Down  (h) Hammer On  (p) Pull Off  (b) Bend (r) Release (v) Vibrato (x) Muted

Tabs for Song : 
BPM : 200

Song lyrics here 
E|-----------------------------------------------------------------------------------------------
B|-----------------------------------------------------------------------------------------------
G|-----------------------------------------------------------------------------------------------
D|-----------------4-----------------------------------------------------------------------------
A|--3--3--3--5--5-----4--4--4--------3--4--4-----------2--3--------2--------------------2--1-----
E|-----------------------------3--3-----------4--3--2--------1--2--------------0--0--2--------5--

E|-----------------------------------------------------------------------------------
B|-----------------------------------------------------------------------------------------------
G|-----------------------------------------------------------------------------------------------
D|-----------------------------------------------------------------------------------------------
A|--3--------2--2--------1-----2--------3-----------2-----------1--0-----2-----1-----1--0--1--1--
E|-----3-----------2--1-----------2--------2--1--0-----------2--------0-----------1--------------

E|-----------------------------------------------------------------------------------------------
B|-----------------------------------------------------------------------------------------------
G|-----------------------------------------------------------------------------------------------
D|--------------------------------------------------1--------------------------------------------
A|--------0--0--0--0--1--1--1--------------------------------3--------1-----------------3--3--3--
E|--1--------------------------1-----0--0--0--1--1-----2--3-----3--4-----4-----------------------

E|-----------------------------------------------------------------------------------------------
B|-----------------------------------------------------------------------------------------------
G|-----------------------------------------------------------------------------------------------
D|-----------------------------------------------------------------------------------------------
A|--------------1--1--1--------------------------------0--1--2--------------------------------2--
E|--2--2--2--2-----------1--1--1--2--2--2--1--1--1--1-----------------3--3--3--3--2--2--2--2-----

E|-----------------------------------------------------------------------------------------------
B|-----------------------------------------------------------------------------------------------
G|-----------------------------------------------------------------------------------------------
D|-----------------------------------------------------------------------------------------------
A|--2--2-----------------------------------2--2--2-----------1--1--1-----------1--1--1-----------
E|--------1-----------------------------------------1--1--1-----------0--0--0-----------0--0--0--

E|-----------------------------------------------------------------------------------------------
B|-----------------------------------------------------------------------------------------------
G|-----------------------------------------------------------------------------------------------
D|-----------------------------------------------------------------------------------------------
A|--------2-----------------------------------1--------------------------1-----------------------
E|--0--0-----3--3--------0--0--------2--2--------------3--------0-----------------2--------1-----

E|-----------------------------------------------------------------------------------------------
B|-----------------------------------------------------------------------------------------------
G|-----------------------------------------------------------------------------------------------
D|-----------------------------------------------------------------------------------------------
A|-----1-----------------------------------1--------0-----------------------------4--4--4--4-----
E|--------------0--------0--------0--------------------1--2--2--2--2--3--3--3--3--------------4--

E|-----------------------------------------------------------------------------------------------
B|-----------------------------------------------------------------------------------------------
G|-----------------------------------------------------------------------------------------------
D|-----------------------------------------------------------------------------------------------
A|--------5--5--6--6--7-----7-----------------------11-11-10-10-12-12-12-14-14-14-14-14-14----16-
E|--5--5-----------------7-----7--8--8--9--9--9--9-----------------------------------------15----

E|-----------------------------------------------------------------------------------------------
B|-----------------------------------------------------------------------------------------------
G|-----------------------------------------------------------------------------------------------
D|-----------------------------------------------------------------------------------------------
A|--16-16-16-------17-16-16-16-17-17-17-18-18-18-17-------------19-19-19-19----18----------21-21-
E|-----------17-17----------------------------------17-16-16-16-------------18----19-19-20-------

E|--------------------------------------------------------------------------------------------22-
B|--------------------------------------------------22----------------------22-22-21-21-21-22----
G|-----------------------------------------------------21-21----------21-22----------------------
D|-----------------------------------------------------------21-21-22----------------------------
A|--19-18-------21-21----22-------22-22-22-22----------------------------------------------------
E|--------20-20-------21----22-22----------------------------------------------------------------

E|--22-21-21----------------22----21----------------------21----22-------------------------------
B|--------------21----21----------------21----------21-------------------------------------------
G|--------------------------------------------21-------------------------------------------------
D|-----------------------------------------------------------------------------------------------
A|-----------------------------------------------------------------------------------------0-----
E|--------------------------------------------------------------------------------0--0--0-----1--

E|-----------------------------------------------------------------------------------------------
B|-----------------------------------------------------------------------------------------------
G|-----------------------------------------------------------------------------------------------
D|-----------------------------------------------------------------------------------------------
A|--1--1--1--0--0--0--------------2--2--2--2--------------------1--0--------------1--1--2--2--3--
E|--------------------1--2--3--3--------------2--2--2--2--2--2--------0--1--2--2-----------------

E|-----------------------------------------------------------------------------------------------
B|-----------------------------------------------------------------------------------------------
G|-----------------------------------------------------------------------------------------------
D|-----------------------------------------------------------------------------------------------
A|--3--3--------------------2--2-----1--1--1--------0--0-----1--2--2--1--2--2-----------0--2-----
E|--------3--2--2--2--2--2--------3-----------0--0--------1--------------------1--0--2--------1--

E|-----------------------------------------------------------------------------------------------
B|-----------------------------------------------------------------------------------------------
G|-----------------------------------------------------------------------------------------------
D|-----------------------------------------------0-----------------------------------------------
A|-----0--------0--------3--1-----0--1--------3-----1--------0--2-----2-----1--------------------
E|--2-----2--1-----3--1--------2--------2--1-----------2--1--------1-----1-----2--1--2--0--2--1--

E|-----------------------------------------------------------------------------------------------
B|-----------------------------------------------------------------------------------------------
G|-----------------------------------------------------------------------------------------------
D|-----------------------------------------------------------------------------------------------
A|-----0-----------------------------------------------------------------------------------------
E|--2-----2--1--2-----------2--2--2--2--2--2--2--2--2--2--2--2--3--3--3--3--3--3--3--3--3--4--4--

E|-----------------------------------------------------------------------------------------------
B|-----------------------------------------------------------------------------------------------
G|-----------------------------------------------------------------------------------------------
D|-----------------------------------------------------------------------------------------------
A|-----------------------------------------------------------------------------------------------
E|--4--4--4--4--4--4--3--3--3--3--3--3--3--3--3--2--2--2--2--2--2--2--2--2--0--0--0--0--0--0--1--

E|-----------------------------------------------------------------------------------------------
B|-----------------------------------------------------------------------------------------------
G|-----------------------------------------------------------------------------------------------
D|-----------------------------------------------------------------------------------------------
A|--------------2--2--2--2--2--1--1--1--1--1--1--0--0--0--0--0--0--1--1--1--1--------------------
E|--1--1--1--1-----------------------------------------------------------------1--1--1--1--1--0--

E|-----------------------------------------------------------------------------------------------
B|-----------------------------------------------------------------------------------------------
G|-----------------------------------------------------------------------------------------------
D|-----------------------------------------------------4--4--4--3--------------------------------
A|-----------------------------------------0-----------------------3-----2--------1--------------
E|--0--0--0--0--0--2--2--3--4--4--3--2--1-----2--2--2--------------------------------------1-----

E|-----------------------------------------------------------------------------------------------
B|-----------------------------------------------------------------------------------------------
G|-----------------------------------------------------------------------------------------------
D|--------------------------------------------------3--------------------------------------------
A|-----------------------1--------------------------------------------------------4--2-----------
E|-----2--0--------0--------------1--------2-----------------3--------1--------0-----------------

Song lyrics here 



Use manual mode to free up cursor. Paste any tab in acousterr tab maker and we'll play it !!!
tabs and chords, guitar tabs, music transcription, music technology, deep learning, music information retrieval, transcribe into tabs & chords, chordify, music renditions, songsterr, reverbnation, tabulature, bollywood chords, ultimate guitar, yousician, guitar lessons, acoustic guitar, electric guitar, guitar tuner, 911 tabs