Guitar Tabs for The Curtain

(/) Slide Up  (\) Slide Down  (h) Hammer On  (p) Pull Off  (b) Bend (r) Release (v) Vibrato (x) Muted

Tabs for Song : 
BPM : 89

The parties were bright...
E|------------------------------------------------------------------------------------------------------
B|------------------------------------------------------------------------------------------------------
G|------------------------------------------------------------------------------------------------------
D|----5-5--5-4-2---5--5-4-2--5-5--5-4-2--5--5-4-2-----------6---------6-----------6----6----------------
A|-------------------------------------------------5-5--5-7----5--5-7----5-5--5-7----5---7-5------------
E|------------------------------------------------------------------------------------------------------

Empty as the bottles, empty as my touch... 
E|--------------------------------------------------------------------------------------------------------
B|-------------------------------------------------------------7--------7---------7----7------------------
G|----------------------------------------------------7-7--7-9----7--7-9--7-7--7-9--7----9-7--------------
D|----5-5--5-4-2---5--5-4-2--5-5--5-4-2--5--5-4-2---------------------------------------------------------
A|--------------------------------------------------------------------------------------------------------
E|--------------------------------------------------------------------------------------------------------

Bridge 
E|------------------------------------------------------------------------------------------------------
B|------------------------------------------------------------------------------------10-10-10-12-12-12-
G|--7--7--7--7--7--7--7--7--9--9--9--9--9--9--9--9--9--11-11-11-11-11-11-11-11-11-11--------------------
D|------------------------------------------------------------------------------------7--7--7--9--9--9--
A|--5--5--5--5--5--5--5--5--7--7--7--7--7--7--7--7--7--9--9--9--9--9--9--9--7--7--7---------------------
E|------------------------------------------------------------------------------------------------------

How did it come to this?                          How did it come to this?  
E|---------------------------------------------------------------------------------------------
B|-12-12-12-12-12-12-12-12-12-12-12-12-12-12-12-12-13-13-13-13-13-13-13-13-13-13-13-13-13-----
G|---------------------------------------------------------------------------------------------
D|-9--9--9--9--9--9--9--9--9--9--9--9--9--9--9--9--11-11-11-11-11-11-11-11-11-11-11-11-11------
A|---------------------------------------------------------------------------------------------
E|---------------------------------------------------------------------------------------------

Hoq did it come to this?
E|---------------------------------------------------------------------------------------------------------------------------------------------
B|-15-15-15-15-15-15-15-15-1515-1515-1515-1515-15-15-------------------------------------------------------7--------7-----------7--------7-----
G|-----------------------------------------------------------------------------------------------7-7--7-9----7--7-9---7-7--7-9----7--7-9---7---
D|-12-12-12-12-12-12-12-12-1212-1212-1212-1212-12-12---5-5--5-4-2--5-5-4-2--5-5--5-4-2--5-5-4-2------------------------------------------------
A|---------------------------------------------------------------------------------------------------------------------------------------------
E|---------------------------------------------------------------------------------------------------------------------------------------------
tabs and chords, guitar tabs, music transcription, music technology, deep learning, music information retrieval, transcribe into tabs & chords, chordify, music renditions, songsterr, reverbnation, tabulature, bollywood chords, ultimate guitar, yousician, guitar lessons, acoustic guitar, electric guitar, guitar tuner, 911 tabs